Oops, an error
Loading. Please wait.

Palagot Sa Kontra Bass Tab

3,105 views 3 this week
no commentswrite comment
1 2 3 4 5
please rate
add to favorites
launch autoscroll
font size
0
reset
guitar tuner
Autoscroll
slow
fast
+/-
esc
set tempo
stop
Help us to improve Ultimate-Guitar.com Take our survey!
×
songs:palagot sa kontra
by: phylum..
tabed by:mackix..hehehehe

intro:

G------------------------------|
D------------------------------|
A-------------2--3-------------|
E-------13\5------------5--3---|


G------------------------------|
D------------------------------|repeat 2x
A----22--33--------------------|
E-------------55--33-----------|

G------------------------------|
D------------------------------|balik2x lang sabay lang mo sa kanta.
A-1s3-02-----------------------|
E---------05--03---------------|

ref:
G----------------------------------------|
D----------------------------------------|
A-----22222222333333---------------------|
E---------------------555555553333333----|


chorus:

G---------------------------------------------|
D---------------------------------------------|
A--3---------------------333------------------|
E------5-----1---3s13---------5-5--1-1--3-----|


G----------------------------------------------|
D----------------------------------------------|
A---3333----------3h5--3333--------------------|
E---------555-3h5------------555-3h5-3h5-------|


G----------------------------------------------|
D----------------------------------------------|
A----3-----------------------------------------|
E--------5---1--1s3----------------------------|


mao rah ni ako mahatag hehehe..kamu nalang sabay2x sa kanta...bsta kay balik2x rana 
man gud ko ani nga songs hehehe mao ako gi hemuan ug base..hehehehe mga bisaya 
nalang pud dyon q sa friendster ninyo ok..  jobors_rasta@yahoo.com...tnx...
...
Suggest correction
Give kudos to tab author, rate the tab!
1 2 3 4 5
comments
print report bad tab
guest
You may want to rate the tab now too:
select rating
Please do not post tabs as comments. Select "correction" instead!