Oops, an error
Loading. Please wait.

Duraznito chords

version 1
version 1

Whole song

Interactive

141 views 1 this week
no commentswrite comment
1 2 3 4 5
3 more votes to show rating
add to favorites
×
Save as Personal and add changes to this tab that will be seen only by you. Learn more ›
×
You can save this tab as Personal to edit and correct it or add notes. All changes will be seen only by you. Learn more »
launch autoscroll
font size
0
reset
transpose
0
reset
simplify chords
display chords
guitar tuner
edit
Autoscroll
slow
fast
+/-
esc
set tempo
stop
Strumming
There is no strumming pattern for this song yet. and get +5 IQ
1|----------------------------------------------------
2|------------2-2---2-2-3-------------2-2---2-2-------
3|---------0------2----------------0------2-----------
4|-0-0-0-3-----------------0-0-0-3--------------0-----
5|----------------------------------------------------
6|----------------------------------------------------

1|----------------------------------------------------
2|------------2-2---2-2-3-------------2-2---2-2-------
3|---------0------2----------------0------2-----------
4|-0-0-0-3-----------------0-0-0-3--------------3-3/0-
5|----------------------------------------------------
6|----------------------------------------------------

Em             G          Em
Se borro duraznito de la villa
      Am           C           G
se llevo toda la plata del blindado
      Am       D       G
esa que nos habíamo afanado
         C                    B7
la otra noche, en la General Paz

nos acosto a nosotros sus amigos
nos dejo a todos sin un centavo
ahora tiene un piso en Belgrano
y en un mercedes, se pasea en la ciudad

Estribillo:
               C          Em          G
Miralo a Duraznito viviendo la buena vida
                   Am         D         G
y nosotros que pensábamos que era retardado
               Am       D           Em
ahora esta rodeado por las mejores minas
                Am                   B7
y nosotros los vivos en Devoto encerrados 
               C          Em          G
Miralo a Duraznito viviendo la buena vida
                   Am         D         G
y nosotros que pensábamos que era retardado
               Am       D           Em
ahora esta rodeado por las mejores minas
                Am                   B7
y nosotros los vivos en Devoto encerrados 
           Em
y sin un mango.

            
            
Suggest correction
Creating personal tab
Creating personal tab
You can edit any tab online and save it as your Personal.

You can edit, replace or remove any tab part or add personal notes – all changes will be seen only by you.

Personal tabs can be accessed anytime from any device, even offline.
Learn more »
Give kudos to tab author, rate the tab!
1 2 3 4 5
comments
print report bad tab
guest
Wanna post a correction for this tab? Suggest correction