Oops, an error
Loading. Please wait.

La Danza Chorra tab

version 2
version 2

Whole song

22 views 1 this week
1 commentread comment
1 2 3 4 5
2 more votes to show rating
add to favorites
×
Save as Personal and add changes to this tab that will be seen only by you. Learn more ›
×
You can save this tab as Personal to edit and correct it or add notes. All changes will be seen only by you. Learn more »
launch autoscroll
font size
0
reset
how to read this tab
guitar tuner
edit
Autoscroll
slow
fast
+/-
esc
set tempo
stop
Esta es la danza de los pibes chorrossss......

-----------
-----------
-----------     (X4)
-----------
----3--6--3
--3--------

Pibes Chorrossssss........

---------------------------|-------------------------|
---------------------------|-------------------------|
---------------------------|-------------------------|
---------------------------|-------------------------|
--3-3--6-6--5-8--10-11-10--|-3-3--6-6--5-8-----------|
---------------------------|----------------3--4--3--|


---------------------------|---------------------------|
---------------------------|---------------------------|
---------------------------|---------------------------|
---------------------------|---------------------------|
--3-3--6-6--5-8--10-11-10--|-3-3--6-6--5-8----------3--|
---------------------------|----------------3--4--3----|


---------------------
---13--11--9/11/9--8-
-12------------------
---------------------     (X4)
---------------------
---------------------

Esta es la ultima parte

------------------------------|
-8888-8-9-8-6-8--888-9-8-6-8--|
------------------------------|
------------------------------|
------------------------------|
------------------------------|


--------------6---6-8--6-8-11--8-11-13--11-13-(15)-|  ()varias veces rapido
--888-8-9-8-9---9----------------------------------|
---------------------------------------------------|
---------------------------------------------------|
---------------------------------------------------|
---------------------------------------------------|


----11---10----------10--------|
--8----8----8-----------8------|
--------------7-10-7------7-8--|  (X4)
-------------------------------|
-------------------------------|
-------------------------------|

esto va despues en la segunda parte

----8---8---8---8---8---8---11---11---10---10---10---10---10---10--|
-------------------------------------------------------------------|
--5---5---5---5---5---5---8----8----7----7----7----7----7----7-----|
-------------------------------------------------------------------|
-------------------------------------------------------------------|
-------------------------------------------------------------------|


-----13----13---11---11---11---11---11---11----15----15----13----13-|
--------------------------------------------------------------------|
--10----10----8----8----8----8----8----8----12----12----10----10----|
--------------------------------------------------------------------|
--------------------------------------------------------------------|
--------------------------------------------------------------------|


-----17----17----15----15----19----19--20---20-20-20-20-20-20-20-20-20---|
-------------------------------------------------------------------------|
--14----14----12----12----16----16-----17---17-17-17-17-17-17-17-17-17---|
-------------------------------------------------------------------------|
-------------------------------------------------------------------------|
-------------------------------------------------------------------------|


Saludos desde Salta
Suggest correction
Creating personal tab
Creating personal tab
You can edit any tab online and save it as your Personal.

You can edit, replace or remove any tab part or add personal notes – all changes will be seen only by you.

Personal tabs can be accessed anytime from any device, even offline.
Learn more »
Give kudos to tab author, rate the tab!
1 2 3 4 5
comments
print report bad tab
1 comment total.
0 reply
Dominic_HD 832 Feb 24, 2015 08:46 AM

Esta casi perfecta Buen trabajo.

guest
Wanna post a correction for this tab? Suggest correction