Oops, an error
Loading. Please wait.

Tumble Down World Bass Tab

1 view 1 this week
no commentswrite comment
1 2 3 4 5
3 more votes to show rating
add to favorites
launch autoscroll
font size
0
reset
guitar tuner
Autoscroll
slow
fast
+/-
esc
set tempo
stop
Help us to improve Ultimate-Guitar.com Take our survey!
×
Author
Difficulty
novice
Tabbed by: 6METAL6BASSIST6
E-mail: petergriffinav@gmail.com

Tuning: EADG

G|----------------------------------------------------------------|
D|----------------------------------------------------------------|
A|----------------------------------------------------------------|
E|----------------------------------------------------------------|

G|----------------------------------------------------------------|
D|------------------------------------------------------------7---|
A|----------------------------------------------------------------|
E|----------------------------------------------------------------|

0:09

G|----------------------------------------------------------------|.
D|----------------------------------------------------------------|.
A|5-------------------------------5---------------------------5---|.
E|----------------------------------------------------------------|.
                                                                   .
G|----------------------------------------------------------------|.
D|----------------------------------------------------------------|.
A|5-------------------------------5---------------------------5---|.
E|----------------------------------------------------------------|.
                                                                   . x2
G|----------------------------------------------------------------|.
D|------------------------------4-5---------------------------5---|.
A|7---------------------------7-----------------------------------|.
E|----------------------------------------------------------------|.
                                                                   .
G|----------------------------------------------------------------|.
D|----------------------------------------------------------------|.
A|5---------------------------5---5---------------------------5---|.
E|----------------------------------------------------------------|.

0:47

G|----------------7-------------------------------7---------------|
D|------------7-----------7-------------------7-----------7-------|
A|5---------------------------5---5---------------------------5---|
E|----------------------------------------------------------------|

G|----------------7-------------------------------7---------------|
D|------------7-----------7-------------------7-----------7-------|
A|5---------------------------5---5---------------------------5---|
E|----------------------------------------------------------------|

G|----------------9-------------------------------12--------------|
D|------------9-----------9-------5-----------12----------5-------|
A|7---------------------------7-------------------------------5---|
E|----------------------------------------------------------------|

G|----------------7-------------------------------7---------------|
D|------------7-----------7-------------------7-----------7-------|
A|5---------------------------5---5---------------------------5---|
E|----------------------------------------------------------------|

1:07

G|----------------7-------------------------------7---------------|
D|------------7-----------7-------------------7-----------7-------|
A|5---------------------------5---5---------------------------5---|
E|----------------------------------------------------------------|

G|----------------7-------------------------------7---------------|
D|------------7-----------7-------------------7-----------7-------|
A|5---------------------------5---5---------------------------5---|
E|----------------------------------------------------------------|

G|----------------9-------------------------------12--------------|
D|------------9-----------9-------5-----------12----------5-------|
A|7-----------------------------------------------------------5---|
E|----------------------------------------------------------------|

G|----------------7-------------------------------7---------------|
D|------------7-----------7-------------------7-----------7-------|
A|5---------------------------5---5---------------------------5---|
E|----------------------------------------------------------------|

1:25

G|----------------------------------------------------------------|
D|5-----------5---5-----------5-7-9-----------9---9-----------9---|
A|----------------------------------------------------------------|
E|----------------------------------------------------------------|

G|9---------------------------------------------------------------|
D|--------9-------10------5-------7-------------------------------|
A|----------------------------------------7-----------------------|
E|------------------------------------------------5-----5-5-----5-|

G|----------------7-------------------------------7---------------|
D|------------7-----------7-------------------7-----------7-------| x2
A|5---------------------------5---5---------------------------5---|
E|----------------------------------------------------------------|

1:45

G|----------------7-------------------------------7---------------|.
D|------------7-----------7-------------------7-----------7-------|.
A|5---------------------------5---5---------------------------5---|.
E|----------------------------------------------------------------|.
                                                                   .
G|----------------7-------------------------------7---------------|.
D|------------7-----------7-------------------7-----------7-------|.
A|5---------------------------5---5---------------------------5---|.
E|----------------------------------------------------------------|.
                                                                   . x2
G|----------------9-------------------------------12--------------|.
D|------------9-----------9-------5-----------12----------5-------|.
A|7-----------------------------------------------------------5---|.
E|----------------------------------------------------------------|.
                                                                   .
G|----------------7-------------------------------7---------------|.
D|------------7-----------7-------------------7-----------7-------|.
A|5---------------------------5---5---------------------------5---|.
E|----------------------------------------------------------------|.

2:24

G|--------------------------------------------7---7---------------|
D|------------9---9---------------5-----------------------5-------|
A|7-----------------------7-----------------------------------5---|
E|----------------------------------------------------------------|

G|----------------------------------------------------------------|
D|------------7---7---------------------------9---9---------------| x2
A|5-----------------------5---5---7-----------------------7---7---|
E|----------------------------------------------------------------|

G|----------------------------------------------------------------|
D|------------7---7---------------------------9---9---------------|
A|5-----------------------5---5---7-----------------------7-------|
E|----------------------------------------------------------------|

G|--------------------------------|
D|--------------------------------|
A|--5-----------------------------|
E|--------------------------------|
Suggest correction
Give kudos to tab author, rate the tab!
1 2 3 4 5
comments
print report bad tab
guest
You may want to rate the tab now too:
select rating
Wanna post a correction for this tab? Suggest correction