Oops, an error
Loading. Please wait.

Fig One Tab

398 views 1 this week
no commentswrite comment
1 2 3 4 5
please rate
add to favorites
launch autoscroll
font size
0
reset
how to read this tab
guitar tuner
Autoscroll
slow
fast
+/-
esc
set tempo
stop
Help us to improve Ultimate-Guitar.com Take our survey!
×
PICKIN' AND GRINNIN'

Fig. 1
			Tremolo Picking

	D = downstroke
	U = upstroke
	F = finger

     D  U  D  U  D  U  D  U  D  U  D  U  D  U  D  U
e: --0--0--0--0--3--3--3--3--4--4--4--4--7--7--7--7--|
B: --------------------------------------------------|
G: --------------------------------------------------|
D: --------------------------------------------------|
A: --------------------------------------------------|
E: --------------------------------------------------|
  F.             1  1  1  1  2  2  2  2  3  3  3  3

     D  U  D  U  D   U   D   U   D   U   D   U   D   U   D   U
e: --6--6--6--6--11--11--11--11--12--12--12--12--15--15--15--15--|
B: --------------------------------------------------------------|
G: --------------------------------------------------------------|
D: --------------------------------------------------------------|
A: --------------------------------------------------------------|
E: --------------------------------------------------------------|
     4  4  4  4  1   1   1   1   2   2   2   2   3   3   3   3

     D   U   D   U   D   U   D   U   D   U   D   U   D   U   D   U
e: --16--16--16--16--15--15--15--15--12--12--12--12--11--11--11--11--|
B: ------------------------------------------------------------------|
G: ------------------------------------------------------------------|
D: ------------------------------------------------------------------|
A: ------------------------------------------------------------------|
E: ------------------------------------------------------------------|
     4   4   4   4   3   3   3   3   2   2   2   2   1   1   1   1

     D  U  D  U  D  U  D  U  D  U  D  U  D  U  D  U
e: --8--8--8--8--7--7--7--7--4--4--4--4--3--3--3--3--|
B: --------------------------------------------------|
G: --------------------------------------------------|
D: --------------------------------------------------|
A: --------------------------------------------------|
E: --------------------------------------------------|
     4  4  4  4  3  3  3  3  2  2  2  2  1  1  1  1


11:11 AM 5/25/00
Suggest correction
What's this?
You can suggest a correction to this tab. Community and Mods will review your correction and vote to approve or reject it.
comments
We did not receive enough feedback on this tab! Please rate:
print report bad tab
1 2 3 4 5
guest
You may want to rate the tab now too:
select rating
Please do not post tabs as comments. Select "correction" instead!