Oops, an error
Loading. Please wait.

Hymn Pokoju Bass Tab

330 views 1 this week
no commentswrite comment
1 2 3 4 5
please rate
add to favorites
launch autoscroll
font size
0
reset
guitar tuner
Autoscroll
slow
fast
+/-
esc
set tempo
stop
Help us to improve Ultimate-Guitar.com Take our survey!
×
Author
Legend:
m - palm mute

Intro
                                    x2
G|----------------------------|
D|.--------------------------.|
A|.-2-2--2-2--2-2--222-44-00-.|
E|----------------------------|

                                    x2
G|----------------------------|
D|.--------------------------.|
A|.--------------------------.|
E|--3-3--3-3--3-3--333-55-22--|


Intro part II

G|-----------------------------------------------------------------|
D|.---------------------------------------------------------------.|
A|.---------------------------------------------------------------.|
E|-0-0-0-0-0-0-0-0-3-3-3-3-3-3-3-3-2-2-2-0-2-2-2-2-2-2-2-0-2-2-2-2-|

Intro part III

G|-----------------------------------------------------------------|
D|.---------------------------------------------------------------.|
A|.-----------------------------------------------3-3-3-3-3-3-3-3-.|
E|-0-0-0-0-0-0-0-0-3-3-3-3-3-3-3-3-2-2-2-2-2-2-2-2-----------------|

Verse

G|-----------------------------------------------------------------|
D|.---------------------------------------------------------------.|
A|.-----------------------------------------------3-3-3-3-3-3-3-3-.|
E|-0-0-0-0-0-0-0-0-3-3-3-3-3-3-3-3-2-2-2-2-2-2-2-2-----------------|

Example on first verse:

Wiwat swiat, ludzie czarni...             Czerwoni, zolci, biali...
G|-----------------------------------------------------------------|
D|.---------------------------------------------------------------.|
A|.-----------------------------------------------3-3-3-3-3-3-3-3-.|
E|-0-0-0-0-0-0-0-0-3-3-3-3-3-3-3-3-2-2-2-2-2-2-2-2-----------------|

Z Europy, Azji...                         Australii, Afryki, Ameryki...
G|-----------------------------------------------------------------|
D|.---------------------------------------------------------------.|
A|.-----------------------------------------------3-3-3-3-3-3-3-3-.|
E|-0-0-0-0-0-0-0-0-3-3-3-3-3-3-3-3-2-2-2-2-2-2-2-2-----------------|

Odludki na wyspach...                     Po kolorowych calujcie sie pyskach...
G|-----------------------------------------------------------------|
D|.---------------------------------------------------------------.|
A|.-----------------------------------------------3-3-3-3-3-3-3-3-.|
E|-0-0-0-0-0-0-0-0-3-3-3-3-3-3-3-3-2-2-2-2-2-2-2-2-----------------|

Odludki na wyspach...                     Calujcie sie...
G|-----------------------------------------------------------------|
D|.---------------------------------------------------------------.|
A|.-----------------------------------------------3-3-3-3-3-3-3-3-.|
E|-0-0-0-0-0-0-0-0-3-3-3-3-3-3-3-3-2-2-2-2-2-2-2-2-----------------|

                                          Brudenszaft...
G|-----------------------------------------------------------------|
D|.---------------------------------------------------------------.|
A|.-----------------------------------------------3-3-3-3-3-3-3-3-.|
E|-0-0-0-0-0-0-0-0-3-3-3-3-3-3-3-3-2-2-2-2-2-2-2-2-----------------|

Chorus

Wychlejcie ocean spokojny...
G|------------------------------------------|
D|.-----------------------------------------|
A|.-2-2-2-2-2-2-2-2-2-2-2-2-----------------|
E|--------------------------3-3-3-3-2-2-2-2-|

Spluncie na wojny...
G|------------------------------------------|
D|.-----------------------------------------|
A|.-2-2-2-2-2-2-2-2-2-2-2-2-5-5-5-5---------|
E|----------------------------------2-2-2-2-|

Saxophone solo

G|----------------------------------------------------------------|
D|.---------------------------------------------------------------|
A|.-----------------------------------------------3-3-3-3-3-3-3-3-|
E|-0-0-0-0-0-0-0-0-3-3-3-3-3-3-3-3-2-2-2-2-2-2-2-2----------------|

G|-----------------------------------------------------------|
D|.----------------------------------------------------------|
A|.-----------------------------------------------3m--3m--3m-|
E|-0-0-0-0-0-0-0-0-3-3-3-3-3-3-3-3-2-2-2-2-2-2-2-2-----------|

Ending

G|----|
D|----|
A|-3~-|
E|----|

Whole song goes like this:

Intro x4
Intro part II x2
Intro part III x2
Verse x15
Chorus x4
Intro x4
Intro part III x2
Verse x4
Saxophone solo x2
Verse x4
Chorus x4
Ending

To achieve sound simlar to this in the recording, use a thick pick and turn up middle 
tones on your amp and guitar.
Peace!
Suggest correction
Give kudos to tab author, rate the tab!
1 2 3 4 5
comments
print report bad tab
guest
You may want to rate the tab now too:
select rating
Wanna post a correction for this tab? Suggest correction