Oops, an error
Loading. Please wait.

Just A Simple Plan bass

by Piebald
88 views 1 this week
no commentswrite comment
1 2 3 4 5
3 more votes to show rating
add to favorites
×
Save as Personal and add changes to this tab that will be seen only by you. Learn more ›
×
You can save this tab as Personal to edit and correct it or add notes. All changes will be seen only by you. Learn more »
launch autoscroll
font size
0
reset
guitar tuner
edit
Autoscroll
slow
fast
+/-
esc
set tempo
stop
Author
Difficulty
(0:24)x2
"You've got a window in the basement..."
G|----------------|----------------|----------------|----------------|
D|----------------|----------------|----------------|----------------|
A|8-----8-8-------|--8---8-8-------|8-----8-8-------|--8---8-----8---|
E|------------6---|------------6---|------------6---|--------8h10--10|

G|----------------|----------------|----------------|----------------|
D|----------------|----------------|----------------|----------------|
A|8-----8-8-------|--8---8-8-------|----------------|------------8---|
E|------------6---|------------6-6-|5-5-5-5-5-5-5-5-|8-8-8-8-8h10--10|


(0:48)x1
"You just might sleep yourself to death..."
G|----------------|----------------|----------------|----------------|
D|----------------|----------------|----------------|----------------|
A|----------------|----------------|----------------|4~--------------|
E|1~--------------|5~-----------1/5|6~--------------|----------------|

G|----------------|----------------|----------------|----------------|
D|----------------|----------------|----------------|----------------|
A|--8~------------|7~--------------|5~--------------|4-4-4-4-4-4-4-4-|
E|----------------|----------------|----------------|----------------|


(1:00)x2
"I've got a window sill..."
G|----------------|----------------|----------------|----------------|
D|----------------|----------------|----------------|----------------|
A|8-8-8-8-8-8-8-8-|8-8-8-8-7-7-7-7-|5-5-5-5-5-5-5-5-|5-5-5-5-3-3-3-3-|
E|----------------|----------------|----------------|----------------|

G|----------------|----------------|----------------|----------------|
D|----------------|----------------|----------------|----------------|
A|1-1-1-1-1-1-1-1-|1-1-1-1-0-0-0-0-|--------------4-|--4-4-3-4-3-4-6-|
E|----------------|----------------|3-3-3-3-3-3-3---|----------------|


(1:25)x2 - Same as (0:24).
"You've got a window in the basement..."


(1:50)x2
"It's just a simple plan..."
G|----------------|----------------|----------------|----------------|
D|----------------|----------------|----------------|----------------|
A|----------------|----------------|----------------|----------------|
E|1-----1-1-----1-|--1---1-1-1-1-1/|6-----6-6-----6-|--6---6-6-6-6-6\|


(2:02)x1
"No matter what I try..."
G|----------------|----------------|----------------|----------------|
D|----------------|----------------|----------------|----------------|
A|6-----6-6-------|----------------|6-6-6-6-6-7---8-|----------------|
E|--------------6-|--6---6-6-6-6-6-|----------------|----------------|

(2:08)x2 - Same as (1:00).
"After saying that..."


(2:32)x1
"Your own kind..."
G|----------------|----------------|----------------|----------------|
D|----------------|----------------|----------------|------3---------|
A|8-8-8-8-8-8-8-8-|8-8-8-8-7-7-7-7-|5-5-5-5-5-5-5-5-|5-3-5-----5-3-0-|
E|----------------|----------------|----------------|----------------|

G|----------------|----------------|----------------|----------------|
D|----------------|----------------|----------------|----------------|
A|1-1-1-1-1-1-1-1-|1-1-1-1-0-0-0-0-|--------------4-|--4-4-3-4-3-4-6-|
E|----------------|----------------|3-3-3-3-3-3-3---|----------------|


(2:44)x1 - Same as (1:00).
"If you want to wait..."


(2:57)x2 - Same as (0:24).
"You've got a window in the basement..."


(3:21)x1
(End of chorus)
G|----------------|------------|------------|
D|----------------|------------|------------|
A|----8---8-------|----8---8---|----8--UNH!-|
E|8h10--10--------|8h10--10----|8h10--------|


(3:25)x2 - Same as (1:50).
"It's just a simple plan..."


(3:37)x1
"No matter what I try..."
G|----------------|----------------|----------------|----------------|
D|----------------|----------------|----------------|----------------|
A|6-----6-6-------|----------------|6-6-6-6-6-7---8/|15~---------\\\\|
E|--------------6-|--6---6-6-6-6-6-|----------------|----------------|


(3:43)x1
"You just might sleep yourself to death..."
G|----------------|----------------|----------------|----------------|
D|----------------|----------------|----------------|----------------|
A|----------------|----------------|----------------|4~--------------|
E|1~--------------|5~-----------1/5|6~--------------|----------------|

G|----------------|
D|----------------|
A|----------------|
E|--1~------------|

            
            
Suggest correction
Creating personal tab
Creating personal tab
You can edit any tab online and save it as your Personal.

You can edit, replace or remove any tab part or add personal notes – all changes will be seen only by you.

Personal tabs can be accessed anytime from any device, even offline.
Learn more »
Give kudos to tab author, rate the tab!
1 2 3 4 5
comments
print report bad tab
guest
You may want to rate the tab now too:
select rating
Wanna post a correction for this tab? Suggest correction