Oops, an error
Loading. Please wait.

El Narigon Del Barranco tab

by Pier
65 views 1 this week
no commentswrite comment
1 2 3 4 5
3 more votes to show rating
add to favorites
×
Save as Personal and add changes to this tab that will be seen only by you. Learn more ›
×
You can save this tab as Personal to edit and correct it or add notes. All changes will be seen only by you. Learn more »
launch autoscroll
font size
0
reset
how to read this tab
guitar tuner
edit
Autoscroll
slow
fast
+/-
esc
set tempo
stop

e|---------------0-------------|
B|---------------------3-------|
G|----4---4--4-----4-----4---4-|
D|------4------4-----4-----4---|  x 4
A|--2--------------------------|
E|-----------------------------|

e|-----------------------------|
B|-----------------------------|
G|----4---4--4---4-------4-4---|
D|------4------4-------------4-|  x 2
A|--2--------------------------|
E|-----------------------------|

Solo de Armonica
Base: Bm D G Bm x2  E G Bm    E G Bm A

Bm D G Bm

Bm           D
Se hace la hora deseada
    G                 Bm
y una vez comprada codicia y delicia
             D
al pie de aquella barranca
      G                Bm            E
ese cuarto oloroso de puerta de lata
           G              Bm             E
riendo en falso ante el curioso que mira
           G
y ellas esperan sentadas
       Bm              A
que alguien las cobije... y acaricie!

La mesa se va agrandando
y los invitados juegan su juego
la charla invade el terreno
los tragos de invierno se van consumiendo
El Narigón sigue observando
el contexto de los movimientos
y ellas esperan sentadas
por alguien que se digne... a rozarlas!

D                          A
Barranca abajo demontre de la pubertad
Bm                            G
la rabia rompe el silencio de la curiosidad
D                        A
y ese furioso ladrido eterno ensayarán
         Bm
y El Narigón del Barranco
G
los provocará...
A
ignorandolos!!!!

Solo de guitarra

e|----------------------------------------------------------------------|
B|----------------------------------------------------------------------|
G|-/12---12/11-11/9-9/11--/7-6-4-----------4--7-4---------7-------7-----|
D|-------------------------------7-7-4h5h7--------4-4h5h7---4h5h7-------|
A|----------------------------------------------------------------------|
E|----------------------------------------------------------------------|

e|----------------------------------------------------------------------|
B|----------------------------------------------------------------------|
G|-/12---12/11-11/9-9/11--/7-6-4-----------4--7-4-7---7-9b11----9-9p7---|
D|-------------------------------7-7-4h5h7----------9-----------------9-|
A|----------------------------------------------------------------------|
E|----------------------------------------------------------------------|

                                                       tr
e|-------------------------------------------------------
B|----------------------12-15p12-15p12-14p12-------------
G|-/12---12/11-119-9/11-----------------------12-14-14-14
D|-------------------------------------------------------
A|-------------------------------------------------------
E|-------------------------------------------------------


-------------------------------------|
12-15b17-15-12-12--12h14h15-12h14h15-|
-------------------------------------|
-------------------------------------|
-------------------------------------|
-------------------------------------|

e|--------------------------------------------|
B|-------------------12-15--12-12-------------|
G|-/12--12--11h12h14--------------14-12-14-14-|
D|--------------------------------------------|
A|--------------------------------------------|
E|--------------------------------------------|

e|----------------------------------------------------|
B|-----14------------------14-15-14-------------------|
G|--14------------------14----------------------------|
D|----------------------------------------------------|
A|----------------------------------------------------|
E|----------------------------------------------------|

Bm D G Bm

Se hace la hora deseada
y una vez comprada codicia y delicia
al pie de aquella barranca
ese cuarto oloroso de puerta de lata
riendo en falso ante el curioso que mira
y ellas esperan sentadas
por alguien que se digne... a rozarlas!

G               D                A
Liberando un pasado infectado difícil de curar
G               D                  A
embriagando las almas un débil recluta sin piedad
D                          A
Barranca abajo demontre de la pubertad
Bm                            G
la rabia rompe el silencio de la curiosidad
D                        A
y ese furioso ladrido eterno ensayarán
         Bm
y El Narigón del Barranco
G
los provocará...
A
invitándolos!!!
invitándolos!!!

Solo de guitarra

e|----------------------------------------------------------------------|
B|----------------------------------------------------------------------|
G|-/12---12/11-11/9-9/11--/7-6-4-----------4--7-4---------7-------7-----|
D|-------------------------------7-7-4h5h7--------4-4h5h7---4h5h7-------|
A|----------------------------------------------------------------------|
E|----------------------------------------------------------------------|

e|----------------------------------------------------------------------|
B|----------------------------------------------------------------------|
G|-/12---12/11-11/9-9/11--/7-6-4-----------4--7-4-7---7-9b11----9-9p7---|
D|-------------------------------7-7-4h5h7----------9-----------------9-|
A|----------------------------------------------------------------------|
E|----------------------------------------------------------------------|

                                                       tr
e|-------------------------------------------------------
B|----------------------12-15p12-15p12-14p12-------------
G|-/12---12/11-119-9/11-----------------------12-14-14-14
D|-------------------------------------------------------
A|-------------------------------------------------------
E|-------------------------------------------------------


-------------------------------------|
12-15b17-15-12-12--12h14h15-12h14h15-|
-------------------------------------|
-------------------------------------|
-------------------------------------|
-------------------------------------|

e|--------------------------------------------|
B|-------------------12-15--12-12-------------|
G|-/12--12--11h12h14--------------14-12-14-14-|
D|--------------------------------------------|
A|--------------------------------------------|
E|--------------------------------------------|

e|----------------------------------------------------|
B|-----14------------------14-15-14-------------------|
G|--14------------------14----------------------------|
D|----------------------------------------------------|
A|----------------------------------------------------|
E|----------------------------------------------------|

e|----------------------------------------------------|
B|-----14------------------14-15-14-15-14-------------|
G|--14------------------14----------------------------|
D|----------------------------------------------------|
A|----------------------------------------------------|
E|----------------------------------------------------|
Suggest correction
Creating personal tab
Creating personal tab
You can edit any tab online and save it as your Personal.

You can edit, replace or remove any tab part or add personal notes – all changes will be seen only by you.

Personal tabs can be accessed anytime from any device, even offline.
Learn more »
Give kudos to tab author, rate the tab!
1 2 3 4 5
comments
print report bad tab
guest
Wanna post a correction for this tab? Suggest correction