Oops, an error
Loading. Please wait.

Sacrificio Y Rock And Roll tab

by Pier
77 views 3 this week
no commentswrite comment
1 2 3 4 5
3 more votes to show rating
add to favorites
×
Save as Personal and add changes to this tab that will be seen only by you. Learn more ›
×
You can save this tab as Personal to edit and correct it or add notes. All changes will be seen only by you. Learn more »
launch autoscroll
font size
0
reset
how to read this tab
guitar tuner
edit
Autoscroll
slow
fast
+/-
esc
set tempo
stop
Intro

e-------------------------------------------------------------------------
B-------------------------------------------------------------------------
G-------------------------------------------------------------------------
D--9--11--12-11--12--11--12--12--11--9--11--12--11--12--11--12--12--11--9-
A--7---7---7--7--7---7---7---7----7--7---7---7---7---7---7---7---7--7---7-
E-------------------------------------------------------------------------


e----------------------------------------------------
B----------------------------------------------------
G----------------------------------------------------
D--9---9---11---9---9--11---9---9---11--9---9---11---
A--7---7---7----7---7---7---7---7---7---7---7---7----
E----------------------------------------------------

e----------------------------------------------------
B----------------------------------------------------
G----------------------------------------------------
D--9---9--11--9--9--11--12---11--9-------------------
A--7---7--7---7--7--7----7----7--7-------------------
E----------------------------------------------------


E5-----> Como en el final de la intro
Sacrificio y rock and roll


y estos pibes quieren mover

A5*                                     E5
en esta noche, nena, lo vas a poder tener

B5                                  A5 -->Bicordios sobre el acorde
No te desesperes mas, la vela vas a soplar

E5
y se te va a empapar.


Sacrificio y rock and roll
y estos pibes quieren mover
no te preocupes, nena, que esta noche toca Pier

e----------------------------------------------------------------
B-----12----12----12s14s12----------12----12---12s14s12----------
G----------------------------------------------------------------
D--12----12----12----------------12----12----12------------------
A----------------------------------------------------------------
E----------------------------------------------------------------

e------------------------------------------------------------------------
B----10----8-----10----8-------14----12----14----12----10---8----10----8-
G------------------------------------------------------------------------
D--7-----7-----7----7-----7s12----12----12----12----12---2----7-----7----
A------------------------------------------------------------------------
E------------------------------------------------------------------------

e----------------------------------------------------
B-----14--------12-------------17-----17-------------
G----------------------------------------------------
D--12----12-12-------12s15-15------15-----15---------
A----------------------------------------------------
E----------------------------------------------------

No te desesperes mas, la vela vas a soplar

y se te va a empapar

Sacrificio, sacrificio...

no te preocupes, nena, que esta noche toca Pier

(Luego improvisa sobre la escala y termina)

A5*  -2---2--------2--2--2---------2--2--2-------2--2
     -0---0-----5--0--0--0-----5---0--0--0----5--0--0
     --------3--------------3---------------3--------

Esta tab se la quiero dedicar a los chicos de la banda,
lpf y a mis amigas maga martu ley pri maru y caro! xD
Suggest correction
Creating personal tab
Creating personal tab
You can edit any tab online and save it as your Personal.

You can edit, replace or remove any tab part or add personal notes – all changes will be seen only by you.

Personal tabs can be accessed anytime from any device, even offline.
Learn more »
Give kudos to tab author, rate the tab!
1 2 3 4 5
comments
print report bad tab
guest
Wanna post a correction for this tab? Suggest correction