Oops, an error
Loading. Please wait.

Viajes Memorables tab

by Pier
41 views 1 this week
no commentswrite comment
1 2 3 4 5
3 more votes to show rating
add to favorites
×
Save as Personal and add changes to this tab that will be seen only by you. Learn more ›
×
You can save this tab as Personal to edit and correct it or add notes. All changes will be seen only by you. Learn more »
launch autoscroll
font size
0
reset
how to read this tab
guitar tuner
edit
Autoscroll
slow
fast
+/-
esc
set tempo
stop
Intro:

     RE      SOL            RE
1 ---------------|      1 ------------|
2 ---3--------8--|      2 ---3--------|
3 ---2--------7--|      3 ---2--------|
4 ---------------|  x5  4 ------------|
5 ---------------|      5 ------------|
6 ---------------|      6 ------------|

 _____________________________________

   RE      LA               LA#5
1 ---3--|--------|      1 ------------|
2 ---3--|----3---|      2 ------------|
3 ------|----2---|      3 ------------|
4 ------|--------|      4 --22232223--|
5 ------|--------|      5 --22222222--|
6 ------|--------|      6 ------------|


RE                 LA
Viajes memorables, truenan reyes
RE                    LA
pisando el acelerador encantador
RE                    LA
cuatro copas destilan falopas
RE           LA#5
a transpirar puro rock.

Repite Intro

RE                LA
Paladines quieren embriagarte
RE                         LA
con el perfume acogedor del gran tambor,
RE                      LA
atrincheran sus jugadas,sacudidos,
RE            LA#5
pescadores de ilusiones,y emociones...


    LAm     SOL      RE
1 -------|--3----|--2-3---|
2 --1----|--3----|--3-3---|
3 --2----|-------|--2-2---|
4 --2----|-------|--------|
5 -------|--2----|--------|
6 -------|--3----|--------|

LAm        SOL         RE
Gritan con polenta los leones
LAm        SOL         RE
reyes de la selva del amor
LAm        SOL         RE
No se compra , no se vende su coraje,
LAm        SOL         RE
es la fuerza de su corazon.

1 ------------------|
2 ---3/8--3/8--3/8--|
3 ---2/7--2/7--2/7--|
4 ------------------|
5 ------------------|
6 ------------------|

Repite Intro

RE                  LA
Tanta garra pone en aprietos
RE                    LA
a los tibios de alma y corazon
RE                   LA
tanta entrega a pura devocion...
  LAm        SOL         RE
!Dan ganas de seguir latiendo¡

            
            
Suggest correction
Creating personal tab
Creating personal tab
You can edit any tab online and save it as your Personal.

You can edit, replace or remove any tab part or add personal notes – all changes will be seen only by you.

Personal tabs can be accessed anytime from any device, even offline.
Learn more »
Give kudos to tab author, rate the tab!
1 2 3 4 5
comments
print report bad tab
guest
Wanna post a correction for this tab? Suggest correction