Oops, an error
Loading. Please wait.

Beat It Bass Tab

5,380 views 1 this week
no commentswrite comment
1 2 3 4 5
please rate
add to favorites
launch autoscroll
font size
0
reset
guitar tuner
Autoscroll
slow
fast
+/-
esc
set tempo
stop
Help us to improve Ultimate-Guitar.com Take our survey!
×
Contributor
Tuning
D A D G B E
0:02 Intro:
|------------------------------|
|------------------------------|
|------------------------------|
|-5~--5~--2~--2~--5~--5~--0~---|

0:33
|-------------------------------------------|
|-------4-1---3-1--------------4-1---3-1----|
|-----1-----------44---------1-----------4--|
|-1-4--------------------1-4----------------|

0:40 Verse:
|-----------------------------|
|-----------------------------|
|-6-6-6--4-4-4--6-6-6--4-4-4--|
|-----------------------------|

|-----------------------------|
|-----------------------------|
|-2-2-2--4-4-4--6-6-6--4-4-4--|
|-----------------------------|x2

1:07 Chorus:
|-------------------------------------------|
|-------4-1---3-1--------------4-1---3-1----|
|-----1-----------44---------1-----------4--|
|-1-4--------------------1-4----------------|x3

1:28 Verse:
|--------------------------------|
|--------------------------------|
|-6-6-6--4-4-4--6-6-6--4-4-4/12--|
|--------------------------------|

|-----------------------------|
|-----------------------------|
|-2-2-2--4-4-4--6-6-6--4-4-4--|
|-----------------------------|x2 (only do the slide the first time)

1:56 Chorus:
|-------------------------------------------|
|-------4-1---3-1--------------4-1---3-1----|
|-----1-----------44---------1-----------4--|
|-1-4--------------------1-4----------------|x2

2:10 Brigde:
|--------------------------------|
|--------------------------------|
|--6-6-6--6-6-6----6-6-6--6-6-6--|
|--------------------------------|x12

2:50 During Solo:
|------------------------------|
|------------------------------|
|--6-6-6--4-4-4--6-6-6--4-4-4--|
|------------------------------|

|------------------------------|
|------------------------------|
|--2-2-2--4-4-4--6-6-6--4-4-4--|
|------------------------------|

3:05 Chorus:
|-------------------------------------------|
|-------4-1---3-1--------------4-1---3-1----|
|-----1-----------44---------1-----------4--|
|-1-4--------------------1-4----------------|x4

3:32 Ending:
|----|
|----|
|----|
|-44-|



comments
We did not receive enough feedback on this tab! Please rate:
print report bad tab
1 2 3 4 5
I want to post or [tab]
guest
You may want to rate the tab now too:
select rating
Please do not post tabs as comments. Select "correction" instead!