Oops, an error
Loading. Please wait.

Bedless Tab

version 1
version 1

Acoustic

  • Tabs for the intro and transition sections and increased chord accuracy.

Whole song

181 views 15 this week
no commentswrite comment
1 2 3 4 5
3 more votes to show rating
add to favorites
launch autoscroll
font size
0
reset
how to read this tab
guitar tuner
Autoscroll
slow
fast
+/-
esc
set tempo
stop
Help us to improve Ultimate-Guitar.com Take our survey!
×
Author
Difficulty
Capo
intermediate
1st fret
About this tab version
Tabs for the intro and transition sections and increased chord accuracy. Was this info helpful? Yes No
This tab is written with the numbers based on the neck rather than the capo (the capo is just there to make 
playing it easier), so "1" means to play it open.

Chords (for verses):

EADGBe  EADGBe  EADGBe  EADGBe  EADGBe
x12331  431114  x43121  133111  x44322
 A#m      G#       C#     Fm       F#

[Intro]
   A#m                                 Fm
e|--1-------1-----|---1-------1-1---|---1-------1-----|---1-------1-----|
B|--2-------2-----|---2-------2-2---|---1-------1-----|---1-------1-----|
G|--3-------3-----|---3-------3-3---|---1-------1-----|---1-------1-----|
D|3-----1h3-----1-|h3-----1h3-------|-3-----1h3-----1-|h3-----1h3---3p1-|
A|----------------|-----------------|-----------------|-----------------|
E|----------------|-----------------|-----------------|-----------------|
   A#m                                 Fm                A#m
e|--1-------1-----|---1-------1-----|---1-------1-----|---1-------1-----|
B|--2-------2-----|---2-------2-----|---1-------1-----|---2-------2-----|
G|--3-------3-----|---3-------3-----|---1-------1-----|---3-------3-----|
D|--3-------3-----|---3-------3---1-|h3-----1h3-----1-|h3-----1h3-------|
A|4-----3h4-----3-|h4-----3h4-------|-----------------|-----------------|
E|----------------|-----------------|-----------------|-----------------|

[Verse 1]

A#m
Serve to me
               G#
Whatever you want
                    F#
And whenever you're breezing through
                G#
Keep tearing my world apart
   
e|-------------1-|
B|---------1-4---|
G|-1-1-1-1-------|
D|---------------|
A|---------------|
E|---------------|

      A#m
As we lost the light
                G#
Wet cash on the bar
                     F#
She fell victim to a violent wave
                 G#
And died on the jagged rocks

e|-----------|
B|-----------|
G|-1-------1-|
D|---3-1-3---|
A|-----------|
E|-----------|

[Pre-Chorus]
      F#
But don't believe it's a never-ending summer,
            G#
'cause they don't exist
                                   A#m
Tied around your tongue in all the rage and spit
                    C#
So why am I the one falling apart?

e|-4-4-2-2-1-|
B|-----------|
G|-----------|
D|-----------|
A|-----------|
E|-----------|

[Chorus]
          F#                          A#m
Cause you don't even know you're an angel
              G#
Foolish am I, for the times I come and go
      F#             A#m                  G#
These stars defy love, so I close my eyes

And sleep inside your worn-in bed outline

e|-------------------|-------4-|
B|-1h2-1h2-1h2-1h2-2-|-2-2h4---|
G|-------------------|---------|
D|-------------------|---------|
A|-------------------|---------|
E|-------------------|---------|

[Verse 2]

A#m                               
Splash over your body while you drown on me
        G#
You ain't seen nothin' yet
                         A#m
Enter the galaxy of our sober demise

                             e|-4-1-|
                             B|-1-2-|
                             G|-----|
                             D|-----|
                             A|-----|
         G#                  E|-----|
To the young and without type
         A#m                         
In the morning hear all the birds sing
              G#
It never stops
         
Then, with tears in your eyes
      F#                                  G#
You smiled dressed in coppertone tan lines
                       N.C.
Oh oh I hope that you don't regret me

[Pre-Chorus]

F#                  
Don't believe it's a never-ending summer
           G#
Cause they don't exist
                                   A#m
Tied around your tongue in all the rage and spit
                     C#
So why am I the one falling apart?

e|-4-4-2-2-1-|
B|-----------|
G|-----------|
D|-----------|
A|-----------|
E|-----------|

[Chorus]
          F#                          A#m
Cause you don't even know you're an angel
              G#
Foolish am I, for the times I come and go
      F#             A#m                  G#
These stars defy love, so I close my eyes
                       G#
And sleep inside your worn-in bed
          F#                              G#
And it won't be long 'till we drop this match
         F#                  A#m              C#
When I burn to your fingertips, you can throw what's left

e|-------4--|
B|-2--1--1--|
G|-------1--|
D|----------|
A|----------|
E|----------|

[Bridge]

e|---------------1-|---------------1-|-----1-4---9/11-9-|-4---1---4---1-|--4~2~-|
B|---------1-2/4---|---------1-2/4---|-2h4--------------|---------------|-------|
G|-----------------|-----------------|------------------|---------------|-------|
D|-----1h3---------|-----1h3---------|------------------|---------------|-------|
A|-3/4-------------|-3/4-------------|------------------|---------------|-------|
E|-----------------|-----------------|------------------|---------------|-------|

e|-1---1-4---9/11-9-|-4---1---4-----|
B|-2-4--------------|-------------4~|
G|------------------|---------------|
D|------------------|---------------|
A|------------------|---------------|
E|------------------|---------------|

     C#                Fm                     C#
So long, let's go and play those games you like
             Fm                      C#       Fm     C#    Fm
Let's go and play those games you like

[Pre-Chorus]

      F#
But don't believe
                                     G#
Cause yesterday I found her with her clothes still wet
                            A#m
Crying in the shower on her knees she screamed
                   C#
"Why the fuck am I falling apart!?"

e|-4---1-----|
B|---4---2-4-|
G|-----------|
D|-----------|
A|-----------|
E|-----------|

[Chorus]
          F#                          A#m
Cause you don't even know you're an angel
            G#
Foolish am I, for the times I come and go
      F#             A#m                  G#
These stars defy love, so I close my eyes
                       G#
And sleep inside your worn-in bed

[Outro]

       F#        A#m                  G#
And it woke me up like a heart attack
         F#                         A#m                   C#
When you talk in your sleep, I'll be there to slow your breath.
                C##
e|---------------1-|
B|---------------2-|
G|---------------1-|
D|---1h3-4-------3-|
A|-4---------4-4-4-|
E|---------------x-|

*****************
h - hammer on
p - pull off
~ - vibrato
/ - slide up
Suggest correction
Give kudos to tab author, rate the tab!
1 2 3 4 5
comments
print report bad tab
guest
You may want to rate the tab now too:
select rating
Wanna post a correction for this tab? Suggest correction