Oops, an error
Loading. Please wait.

Bedless tab

version 1
version 1

Whole song

  • Tabs for the intro and transition sections and increased chord accuracy.
9,622 views 102 this week
4 commentsread comments
1 2 3 4 5
x 23
add to favorites
×
Save as Personal and add changes to this tab that will be seen only by you. Learn more ›
×
You can save this tab as Personal to edit and correct it or add notes. All changes will be seen only by you. Learn more »
launch autoscroll
font size
0
reset
how to read this tab
guitar tuner
edit
Autoscroll
slow
fast
+/-
esc
set tempo
stop
Bedless - PIERCE THE VEIL
Tuning: Drop C# (C# G# C# F# A# D#) 

Hi, my name is Ezequiel, i'm 15 and I'm argentinian. I did this with much effort and just hearing, blessings
and I hope u like it.

https://youtu.be/hzAqvgqiQuQ

Guitar I (A lot of distortion, a bit of delay)
Guitar II (Total distortion)
Guitar III (A bit of distortion, half clear)

Intro:
Guitar I:
D#|------------------------------------------------------------------------------------------------|
A#|---15------15------15------15------------14------14------14-----14---------12------12------12---|
F#|------------------------------------------------------------------------------------------------|
C#|-16---14/16---14/16---14/16----16---14/16---14/16---14/16--14\16--14--12/14---12/14---12/14-----|
G#|------------------------------------------------------------------------------------------------|
C#|------------------------------------------------------------------------------------------------|

D#|------------------------------------------------------------------------------------------------|
A#|-----12------14------14------15------14---------------------------------------------------------|
F#|------------------------------------------------------------------------------------------------|
C#|12/14---14/16---14/16---14/16---14/16-----------------------------------------------------------|
G#|------------------------------------------------------------------------------------------------|
C#|------------------------------------------------------------------------------------------------|

Verse:                    
Guitar I:                 
 (Surf to me...)          *intro again**************************************************************
D#|------------------------------------------------------------------------------------------------|
A#|--------2-----0---2-----------------------------------------------------------------------------|
F#|11\7----2-----0---2-----------------------------------------------------------------------------|
C#|x--x----------2---2-----------------------------------------------------------------------------|
G#|9\-5----------2---------------------------------------------------------------------------------|
C#|------------------------------------------------------------------------------------------------|

Pre-chorus:
Guitar II:
(But don't believe...)
D#|------------------------------------------------------------------------------------------------|
A#|------------------------------------------------------------------------------------------------|
F#|7-7-7--6-6-6--6-7-6-7---------------------------------------------------------------------------|
C#|5-5-5--7-7-7--5-5-5-5-7-------------------------------------------------------------------------|
G#|5-5-5--7-7-7--4-5-4-5-7-0-----------------------------------------------------------------------|
C#|5-5-5--7-7-7--5-5-5-5-7-0-----------------------------------------------------------------------|
       x2     x2      x2  (x3)

Guitar I:
(...falling apaaaaart)
D#|------------------------------------------------------------------------------------------------|
A#|------------------------------------------------------------------------------------------------|
F#|-------------14-14-12-12-11-11------------------------------------------------------------------|
C#|-------------x--x--x--x--x--x-------------------------------------------------------------------|
G#|-------------12-12-10-10-9--9-------------------------------------------------------------------|
C#|------------------------------------------------------------------------------------------------|

Chorus:
Guitar II:
(Cause you don't even know you're an angel...)
D#|------------------------------------------------------------------------------------------------|
A#|------------------------------------------------------------------------------------------------|
F#|------------------------------------------------------------------------------------------------|
C#|----------------------------4-------4-----------------------------------------------------------|
G#|------9-5---------9-5---2-----2-------5-2-4-5---------------------------------------------------|
C#|5-9-5-----9-5-9-5-----2---2-----5-2-----------0-11-12~11-7-0-11-12~11-7-4-9-11-9-4--------------|
                                                                                   (x10)

Guitar I:
D#|------------------------------------------------------------------------------------------------|
A#|------------------------------------------------------------------------------------------------|
F#|16-16-16-14-14-14-14-12-12-12-12-11-11-11-11-9-9-9-14-14-14-14-12-12-12-12-11-11-11-11-7--------|
C#|x--x--x--x--x--x--x--x--x--x--x--x--x--x--x--x-x-x-x--x--x--x--x--x--x--x--x--x--x--x--x--------|
G#|14-14-14-12-12-12-12-10-10-10-10-9--9--9--9--7-7-7-12-12-12-12-10-10-10-10-9--9--9--9--5--------|
C#|------------------------------------------------------------------------------------------------|

D#|------------------------------------------------------------------------------------------------|
A#|------------------------------------------------------------------------------------------------|
F#|11-11-11-9-9-9-9-7-7-7-7-6-6-6-6----------------------------------------------------------------|
C#|x--x--x--x-x-x-x-x-x-x-x-x-x-x-x----------------------------------------------------------------|
G#|9--9--9--7-7-7-7-5-5-5-5-4-4-4-4----------------------------------------------------------------|
C#|------------------------------------------------------------------------------------------------|

Pre-verse 2:
Guitar II:
D#|------------------------------------------------------------------------------------------------|
A#|-------------10-12\-----------------------------------------------------------------------------|
F#|---------9-11-----------------------------------------------------------------------------------|
C#|----10-12---------------------------------------------------------------------------------------|
G#|------------------------------------------------------------------------------------------------|
C#|------------------------------------------------------------------------------------------------|

Verse 2 
Guitar I:
(Repeat intro)

Guitar II:
  (..morning hear all the birds sing...)
D#|---------------------/22-21-19------------------------------------------------------------------|
A#|12----12------10--------------19-17-------------------------------------------------------------|
F#|14(16)14(16)--12(14)---------------19-----------------------------------------------------------|
C#|----------------------------------------14(16)--------------------------------------------------|
G#|------------------------------------------------------------------------------------------------|
C#|------------------------------------------------------------------------------------------------|

Pre-chorus 
Guitar II:
  (don't believe...)
D#|------------------------------------------------------------------------------------------------|
A#|------------------------------------------------------------------------------------------------|
F#|7-7-7--6-6-6--6-7-7-----------------------------------------------------------------------------|
C#|5-5-5--7-7-7--5-5-5--7-7-7-7-7-7-7-7------------------------------------------------------------|
G#|5-5-5--7-7-7--4-5-5--7-7-7-7-7-7-7-7------------------------------------------------------------|
C#|5-5-5--7-7-7--5-5-5--7-7-7-7-7-7-7-7------------------------------------------------------------|

Guitar I (repeat):
D#|------------------------------------------------------------------------------------------------|
A#|10-12-------------------------------------------------------------------------------------------|
F#|------------------------------------------------------------------------------------------------|
C#|------------------------------------------------------------------------------------------------|
G#|------------------------------------------------------------------------------------------------|
C#|------------------------------------------------------------------------------------------------|

Chorus:
Guitar II:
D#|------------------------------------------------------------------------------------------------|
A#|------------------------------------------------------------------------------------------------|
F#|------------------------------------------------------------------------------------------------|
C#|----------------------------4-------4-----------------------------------------------------------|
G#|------9-5---------9-5---2-----2-------5-2-4-5---------------------------------------------------|
C#|5-9-5-----9-5-9-5-----2---2-----5-2-----------0-11-12~11-7-0-11-12~11-7-4-9-11-9-4--------------|

Guitar I:
D#|------------------------------------------------------------------------------------------------|
A#|------------------------------------------------------------------------------------------------|
F#|16-16-16-14-14-14-14-12-12-12-12-11-11-11-11-9-9-9-14-14-14-14-12-12-12-12-11-11-11-11-7--------|
C#|x--x--x--x--x--x--x--x--x--x--x--x--x--x--x--x-x-x-x--x--x--x--x--x--x--x--x--x--x--x--x--------|
G#|14-14-14-12-12-12-12-10-10-10-10-9--9--9--9--7-7-7-12-12-12-12-10-10-10-10-9--9--9--9--5--------|
C#|------------------------------------------------------------------------------------------------|

D#|------------------------------------------------------------------------------------------------|
A#|------------------------------------------------------------------------------------------------|
F#|11-11-11-9-9-9-9-7-7-7-7-6-6-6-6----------------------------------------------------------------|
C#|x--x--x--x-x-x-x-x-x-x-x-x-x-x-x----------------------------------------------------------------|
G#|9--9--9--7-7-7-7-5-5-5-5-4-4-4-4----------------------------------------------------------------|
C#|------------------------------------------------------------------------------------------------|

Post-Chorus:
Guitar II:
(It won't be long...)
D#|------------------------------------------------------------------------------------------------|
A#|------------------------------------------------------------------------------------------------|
F#|------------------------------------------------------------------------------------------------|
C#|------------------------------------------------------------------------------------------------|
G#|----------------------------------------------------5-4-0---------------------------5-7-7/9-5---|
C#|5-0-4-5-5-0-4-5-5-0-4-5/9-9-7-0-5-7-7-0-5-7-7-0-5-7-------4-0-2-4-0-2-4-0-2-4-5-5/8-5--------5--|

Guitar I:
D#|------------------------------------------------------------------------------------------------|
A#|------------------------------------------------------------------------------------------------|
F#|7-7-7-7-7-7-7-7-7-9-9-11-11-12-12-9-9-9-9-9-9-9-12-12-12-12-11-11-------------------------------|
C#|x-x-x-x-x-x-x-x-x-x-x-x--x--x--x--x-x-x-x-x-x-x-x--x--x--x--x--x--------------------------------|
G#|5-5-5-5-5-5-5-5-5-7-7-9--9--10-10-7-7-7-7-7-7-7-10-10-10-10-9--9--------------------------------|
C#|------------------------------------------------------------------------------------------------|

D#|------------------------------------------------------------------------------------------------|
A#|------------------------------------------------------------------------------------------------|
F#|11-11-11-11-11-11-11-6-6-6-6-7-7-7--7/--19\-18\-14----------------------------------------------|
C#|x--x--x--x--x--x--x--x-x-x-x-x-x-x--x---x---x---x-----------------------------------------------|
G#|9--9--9--9--9--9--9--4-4-4-4-5-5-5--5/--17\-16\-12----------------------------------------------|
C#|------------------------------------------------------------------------------------------------|

Bridge:
Guitar I:
D#|------------------------------------------------------------------------------------------------|
A#|------------14(15)----------------------------14(15)--------------------------------------------|
F#|------11-14--------14-11-14-11\---------11-14--------11-14-11-----------------------------------|
C#|12-14----------------------------12-14---------------------14(16)-------------------------------|
G#|------------------------------------------------------------------------------------------------|
C#|------------------------------------------------------------------------------------------------|

Guitar II:
(So looooong...)
D#|------------------------------------------------------------------------------------------------|
A#|------------------------------------------------------------------------------------------------|
F#|---------------------------------------------14-14-14-14-14-14-14-14----------------------------|
C#|---------------------------------------------12-12-12-12-11-11-11-11----------------------------|
G#|----0-----4-----0-----4---4-4-4-4-4-4-4-4-4--12-12-12-12-12-12-12-12----------------------------|
C#|0-0-0-4-4-4-0-0-0-4-4-4---4-4-4-4-4-4-4-4-4--12-12-12-12-11-11-11-11----------------------------|

Guitar I: (palm mute)
(But don't believe...)
D#|------------------------------------------------------------------------------------------------|
A#|------------------------------------------------------------------------------------------------|
F#|--------------------------------7-6-7-9-7-6-7-9-7-6-7-9-7-6-7-9---------------------------------|
C#|4-2-4-5-4-2-4-5-4-2-4-5-4-2-4-5-----------------------------------------------------------------|
G#|------------------------------------------------------------------------------------------------|
C#|------------------------------------------------------------------------------------------------|

D#|------------------------------------------------------------------------------------------------|
A#|11-11-9-9-11-11-12-12-11-11-9-9-11-11-12-12-11-11-9-9-11-11-12-12-11-11-9-9-7-7-9-9-------------|
F#|------------------------------------------------------------------------------------------------|
C#|------------------------------------------------------------------------------------------------|
G#|------------------------------------------------------------------------------------------------|
C#|------------------------------------------------------------------------------------------------|

Outro:
Guitar III:
(And it woke me up like a heart attack...)
D#|------------------------------------------------------------------------------------------------|
A#|------------------------------------------------------------------------------------------------|
F#|------------------------------------------------------------------------------------------------|
C#|------------------------------------------------------------------------------------------------|
G#|5--5-5--5--5/7--7-7-7--7-7--7--4--4-4--4-4-4--4-4-4--5-7-7/9-5----------------------------------|
C#|5--5-5--5--5/7--7-7-7--7-7--7--4--4-4--4-4-4--4-2-4/5---------5---------------------------------|
                     (..When you talk in your sleep I'll be there to slow your breath)

            
            
Suggest correction
Creating personal tab
Creating personal tab
You can edit any tab online and save it as your Personal.

You can edit, replace or remove any tab part or add personal notes – all changes will be seen only by you.

Personal tabs can be accessed anytime from any device, even offline.
Learn more »
comments
print report bad tab
4 comments total. Showing first comments.
0 reply
katlyn0618 51 May 24, 2016 07:09 PM

amazing tab, love the intro

0 reply
thepicwookie 12 Aug 12, 2016 02:38 PM

Only missing a few small parts and the outro, but good job with the rest of it!

0 reply
PierceTheKnight 367 Oct 27, 2016 08:51 PM

The tab is pretty cool! The intro could be more easier to play on the B & High E string though, but good job!

guest
You may want to rate the tab now too:
select rating
Wanna post a correction for this tab? Suggest correction