Oops, an error
Loading. Please wait.

Besitos bass

version 1
version 1

Whole song

Interactive

6,082 views 12 this week
no commentswrite comment
1 2 3 4 5
x 8
add to favorites
×
Save as Personal and add changes to this tab that will be seen only by you. Learn more ›
×
You can save this tab as Personal to edit and correct it or add notes. All changes will be seen only by you. Learn more »
launch autoscroll
font size
0
reset
guitar tuner
edit
Autoscroll
slow
fast
+/-
esc
set tempo
stop
Okay so this is the hardest song I have ever tabbed so far, by far. Timings are 
really tricky. Have Fun ^^

0:01 Intro
F#|-----------------------------------------------------------------|
C#|-----------------------------------------------------------------|
G#|-5---------------------------------------------------------------|
C#|-----------------------------------------------------------------|
    1 + 2 + 3 + 4 + 1 + 2 + 3 + 4 + 1 + 2 + 3 + 4 + 1 + 2 + 3 + 4 +

F#|-----------------------------------------------------------------|
C#|-----------------------------------------------------------------|
G#|-----------------------------------------------------------------|
C#|-----------------------------------------------------------------|
    1 + 2 + 3 + 4 + 1 + 2 + 3 + 4 + 1 + 2 + 3 + 4 + 1 + 2 + 3 + 4 +

F#|-------------------------------------------------------------|
C#|-------------------------------------------------------------|
G#|-----------5---5---5-----------5-----5-----------4---4---4---|
C#|-5---5---5-----------5---5---5---0-8---4---4---4-------------|
    1 + 2 + 3 + 1 + 2 + 3 + 1 + 2 + 3 + 1 + 2 + 3 + 1 + 2 + 3 +

F#|-------------------------------------------------------------|
C#|-------------------------------------------------------------|
G#|-----------4---4---4-----------1---1---1-----------1---1-3---|
C#|-4---4---4-----------1---1---1-----------1---1---1---0-----0-|
    1 + 2 + 3 + 1 + 2 + 3 + 1 + 2 + 3 + 1 + 2 + 3 + 1 + 2 + 3 +

F#|-------------------------------------------|
C#|-------------------------------------------|
G#|---------------0---0---0---5---3---1---0---|
C#|---0---0---0-------------------------------|
    1 + 2 + 3 + 1 + 2 + 3 + 1 + 2 + 3 + 1 + 2

0:27 Verse
F#|-----------------------------------------------------------------|
C#|-----------------------------------------------------------------|
G#|-----------------------------------------------------------------|
C#|-8-8-8-5-5-5-0-0-0-8-8-8-5-0-5-8-7-7-7-4-4-4-0-0-0-7-7-7-4-0-4-7-|
    1 + 2 + 3 + 4 + 1 + 2 + 3 + 4 + 1 + 2 + 3 + 4 + 1 + 2 + 3 + 4 +

F#|-----------------------------------------------------------------|
C#|-----------------------------------------------------------------|
G#|-----------------------------------------------------------------|
C#|-1-1-1-5-5-5-8-8-8-1-1-1-5-0-5-8-0-0-0-4-4-4-7-7-7-0-0-0-4-4-7-7-|
    1 + 2 + 3 + 4 + 1 + 2 + 3 + 4 + 1 + 2 + 3 + 4 + 1 + 2 + 3 + 4 +

0:40 Pre-Chorus
F#|-----------------------------------------------------------------|
C#|-----------------------------------------------------------------|
G#|-15\--------------------------12\6-6---6-6---6-----6-6---6---6---|
C#|-----------------------------------------------------------------|
    1 + 2 + 3 + 4 + 1 + 2 + 3 + 4 + 1 + 2 + 3 + 4 + 1 + 2 + 3 + 4 +

F#|---------------------------------|
C#|-----------------------------10--|
G#|-5-5---5-5---5-----9-9-9-1212--12|
C#|---------------------------------|
    1 + 2 + 3 + 4 + 1 + 2 + 3 + 4 +

0:53 Chorus
F#|-------------------------------------------------------------------|
C#|o-------------------------------------------------------------7---o|
G#|o---------------------------------3-3-3-3---------5-5-5-5-9-9---9-o|
C#|--5-------5---3---1-------1---0-----------5-5-5-5------------------|x2
     1 + 2 + 3 + 4 + 1 + 2 + 3 + 4 + 1 + 2 + 3 + 4 + 1 + 2 + 3 + 4 +

1:09 Verse
F#|-----------------------------------------------------------------|
C#|-----------------------------------------------------------------|
G#|-----------------------------------------------------------------|
C#|-8-8-8-5-5-5-0-0-0-8-8-8-5-0-5-8-7-7-7-4-4-4-0-0-0-7-7-7-4-0-4-7-|
    1 + 2 + 3 + 4 + 1 + 2 + 3 + 4 + 1 + 2 + 3 + 4 + 1 + 2 + 3 + 4 +

F#|-----------------------------------------------------------------|
C#|-----------------------------------------------------------------|
G#|-----------------------------------------------------------------|
C#|-1-1-1-5-5-5-8-8-8-1-1-1-5-0-5-8-0-0-0-4-4-4-7-------------------|
    1 + 2 + 3 + 4 + 1 + 2 + 3 + 4 + 1 + 2 + 3 + 4 + 1 + 2 + 3 + 4 +

F#|-----------------------------------------------------------------|
C#|-----------------------------------------------------------------|
G#|-----------------------------------------------------------------|
C#|-8-8-8-5-5-5-0-0-0-8-8-8-5-0-5-8-7-7-7-4-4-4-0-0-0-7-7-7-4-0-4-7-|
    1 + 2 + 3 + 4 + 1 + 2 + 3 + 4 + 1 + 2 + 3 + 4 + 1 + 2 + 3 + 4 +

F#|-----------------------------------------------------------------|
C#|-----------------------------------------------------------------|
G#|-----------------------------------------------------------------|
C#|-1-1-1-5-5-5-8-8-8-1-1-1-5-0-5-8-0-0-0-4-4-4-7-7-7-0-0-0-4-4-7-7-|
    1 + 2 + 3 + 4 + 1 + 2 + 3 + 4 + 1 + 2 + 3 + 4 + 1 + 2 + 3 + 4 +

1:34 Pre-Chorus
F#|-----------------------------------------------------------------|
C#|-----------------------------------------------------------------|
G#|-----------------------------------------------------------------|
C#|-0-------------------------------13--------------13r-------------|
    1 + 2 + 3 + 4 + 1 + 2 + 3 + 4 + 1 + 2 + 3 + 4 + 1 + 2 + 3 + 4 +

1:41 Chorus
F#|-------------------------------------------------------------------|
C#|o-------------------------------------------------------------7---o|
G#|o---------------------------------3-3-3-3---------5-5-5-5-9-9---9-o|
C#|--5-------5---3---1-------1---0-----------5-5-5-5------------------|x2
     1 + 2 + 3 + 4 + 1 + 2 + 3 + 4 + 1 + 2 + 3 + 4 + 1 + 2 + 3 + 4 +

1:53 Bridge
F#|-----------------------------------------------5-7---5-----------|
C#|-0---5-------8---0---5-------8---0---5-------8---------------8---|
G#|-----------------------------------------------------------------|
C#|-----------------------------------------------------------------|
    1 e + a 2 e + a 3 e + a 4 e + a 1 e + a 2 e + a 3 e + a 4 e + a

F#|-----------------------------------------------3-5---3-------2---|
C#|-0---4-------7---0---4-------7---0---4-------7-------------------|
G#|-----------------------------------------------------------------|
C#|-----------------------------------------------------------------|
    1 e + a 2 e + a 3 e + a 4 e + a 1 e + a 2 e + a 3 e + a 4 e + a

F#|-----------------------------------------------------------------|
C#|-0---1-------5---0---1-------5---0---1-------5---8---7-------5---|
G#|-----------------------------------------------------------------|
C#|-----------------------------------------------------------------|
    1 e + a 2 e + a 3 e + a 4 e + a 1 e + a 2 e + a 3 e + a 4 e + a

F#|-----------------------------------------------------------------|
C#|-0---4-------7---0---4-------7-----------------------------------|
G#|---------------------------------5-------------------------------|
C#|-----------------------------------------------------------------|
    1 e + a 2 e + a 3 e + a 4 e + a 1 e + a 2 e + a 3 e + a 4 e + a

2:06 Breakdown
F#|-------------------------------------------------------------------|
C#|o-----------------------------------------------------------------o|
G#|o-------------6---6---------------------------3---3---------------o|
C#|--5-----------------------4---4---------------------------4--------|x4
     1 + 2 + 3 + 4 + 1 + 2 + 3 + 4 + 1 + 2 + 3 + 4 + 1 + 2 + 3 + 4 +

2:32 Rest

2:51
F#|-----------------------------------------------------------------|
C#|-----------------------------------------------------------------|
G#|-6-6-6-6-6-6-6-6-6-6-6-6-6-6-6-6-5-5-5-5-5-5-5-5-----------------|
C#|-------------------------------------------------4-4-4-4-4-4-4-4-|
    1 + 2 + 3 + 4 + 1 + 2 + 3 + 4 + 1 + 2 + 3 + 4 + 1 + 2 + 3 + 4 +

F#|-----------------------------------------------------------------|
C#|-----------------------------------------------------------------|
G#|-----------------------------------------------------------------|
C#|-----------------------------------------------------------------|
    1 + 2 + 3 + 4 + 1 + 2 + 3 + 4 + 1 + 2 + 3 + 4 + 1 + 2 + 3 + 4 +

3:04 Verse
F#|-----------------------------------------------------------------|
C#|-----------------------------------------------------------------|
G#|-----------------------------------------------------------------|
C#|-8-8-8-5-5-5-0-0-0-8-8-8-5-0-5-8-7-7-7-4-4-4-0-0-0-7-7-7-4-0-4-7-|
    1 + 2 + 3 + 4 + 1 + 2 + 3 + 4 + 1 + 2 + 3 + 4 + 1 + 2 + 3 + 4 +

F#|-----------------------------------------------------------------|
C#|-----------------------------------------------------------------|
G#|-----------------------------------------------------------------|
C#|-1-1-1-5-5-5-8-8-8-1-1-1-5-0-5-8-0-0-0-4-4-4-7-7-7-0-0-0-4-4-7-7-|
    1 + 2 + 3 + 4 + 1 + 2 + 3 + 4 + 1 + 2 + 3 + 4 + 1 + 2 + 3 + 4 +

F#|-----------------------------------------------------------------|
C#|-----------------------------------------------------------------|
G#|-----------------------------------------------------------------|
C#|-8-----5-----0-----8-----5-0-5-8-7-----4-----0-----7-----4-0-4-7-|
    1 + 2 + 3 + 4 + 1 + 2 + 3 + 4 + 1 + 2 + 3 + 4 + 1 + 2 + 3 + 4 +

F#|-----------------------------------------------------------------|
C#|-----------------------------------------------------------------|
G#|-----------------------------------------------------------------|
C#|-1-----5-----8-----1-----5-0-5-8-0-----4-----7-----0-----4-4-7-7-|
    1 + 2 + 3 + 4 + 1 + 2 + 3 + 4 + 1 + 2 + 3 + 4 + 1 + 2 + 3 + 4 +

F#|-----------------------------------------------------------------|
C#|-----------------------------------------------------------------|
G#|---------------------------------0-------------------------------|
C#|-0---------------4-----------------------------------------------|
    1 + 2 + 3 + 4 + 1 + 2 + 3 + 4 + 1 + 2 + 3 + 4 + 1 + 2 + 3 + 4 +

3:36 Chorus
F#|-------------------------------------------------------------------|
C#|o-------------------------------------------------------------7---o|
G#|o---------------------------------3-3-3-3---------5-5-5-5-9-9---9-o|
C#|--5-------5---3---1-------1---0-----------5-5-5-5------------------|x2
     1 + 2 + 3 + 4 + 1 + 2 + 3 + 4 + 1 + 2 + 3 + 4 + 1 + 2 + 3 + 4 +

F#|-------------------------------------------------------------------|
C#|o-----------------------------------------------------------------o|
G#|o---------------------------------3-3-3-3---------5-5-5-5-5-5-5-5-o|
C#|--5-------5---3---1-------1---0-----------5-5-5-5------------------|x2
     1 + 2 + 3 + 4 + 1 + 2 + 3 + 4 + 1 + 2 + 3 + 4 + 1 + 2 + 3 + 4 +

F#|---------------------------------|
C#|---------------------------------|
G#|-15151515101010105-5-5-5-9-9-9-9-|
C#|---------------------------------|
    1 + 2 + 3 + 4 + 1 + 2 + 3 + 4 +

4:04 Outro
F#|-----------------------------------------------------------------|
C#|-----------------------------------------------------------------|
G#|-3---------------------------------------------------------------|
C#|-----------------4---------------5-----------------------------0-|
    1 + 2 + 3 + 4 + 1 + 2 + 3 + 4 + 1 + 2 + 3 + 4 + 1 + 2 + 3 + 4 +

F#|-----------------------------------------------------------------|
C#|-----------------------------------------------------------------|
G#|-----------------5----------------------------------56---5-3-1---|
C#|-13------------------------------5-------------------------------|
    1 + 2 + 3 + 4 + 1 + 2 + 3 + 4 + 1 + 2 + 3 + 4 + 1 + 2 + 3 + 4 +

F#|-----------------------------------------------------------------|
C#|-----------------------------------------------------------------|
G#|-----------------------------------------------------------------|
C#|-1---------------0---------------5-------------------------------|
    1 + 2 + 3 + 4 + 1 + 2 + 3 + 4 + 1 + 2 + 3 + 4 + 1 + 2 + 3 + 4 +

Tabbed By Jack Mills

=============================================================================
Old Version:
=============================================================================

Intro
D|----------------------------------------------------------------|
A|----444-------4--4------333------333---------------0-02---4\20--|
E|-222------222---0----111------111---------555-----------------4-|
B|---------------2-----------------------333------333-2-----------|

Verse
D|---------------------------------------------------------------------|
A|-000------000---0----------------------000------0-----------------5\-|
E|----222------2-2-444111---4441-14---222------2-2----111444---1144----|
B|-------222----2--------222----2--222------222-2--222------222--------|

Pre-Chorus
D|-------------------------------------8881113-|
A|-55-55-5---55-55-5---44-44-4---101010--------|
E|---------------------------------------------|
B|---------------------------------------------|

Chorus
D|-----------------------------------6--|
A|-9---9-7-5----5-4---2222----4444-88-8-|
E|------------------------2222----------|
B|--------------------------------------|x2

Verse
D|--------------------------------------------------------------------|
A|-000------000---0----------------------000------0-------------------|
E|----222------2-2-444111---4441-14---222------2-2----111444----------|
B|-------222----2--------222----2--222------222-2--222------2x--------|

D|--------------------------------------------------------------------|
A|-000------000---0----------------------000------0----------------5\-|
E|----222------2-2-444111---4441-14---222------2-2----111444---1144---|
B|-------222----2--------222----2--222------222-2--222------222-------|

Chorus
D|-----------------------------------6--|
A|-9---9-7-5----5-4---2222----4444-88-8-|
E|------------------------2222----------|
B|--------------------------------------|x2

Bridge
G|------------642--------------421--------------21------------|
D|--47--47--47-------36--36--36-------04--04--04--4----36--36-|
A|-4---4---4--------4---4---4--------4---4---4--------4---4---|
E|------------------------------------------------------------|
B|------------------------------------------------------------|

Bridge Pt II
D|------------------------------------------------|
A|-------55--------22----------55--------22-------|
E|-2x--------11-------11-----------11-------11----|
B|------------------------------------------------|

D|------------------------------------------------|
A|-------55--------22----------55--------22-------|
E|-2x--------11-------11-2x--------11-------11----|
B|------------------------------------------------|

Bridge Pt III "Don't Expect Me..."
D|---------------------------------------------|
A|-77777777-77777777-66666666-1010101010101010-|
E|---------------------------------------------|
B|---------------------------------------------|

D|------------------------------------------------------------------|
A|-000------000---0----------------------000------0-----------------|
E|----222------2-2-444111---4441-14---222------2-2----111444---1144-|
B|-------222----2--------222----2--222------222-2--222------222-----|

D|-------------------------------------------------------------------------------|
A|-0--------0-----0----------------------0--------0-----------------6~--10~--13~-|
E|----2--------2-2-4--1-----4--1-14---2--------2-2----1--4-----1144--------------|
B|-------2------2--------2------2--2--------2---2--2--------2--------------------|

Chorus
G|--------------------------------------|
D|-----------------------------------6--|
A|-9---9-7-5----5-4---2222----4444-88-8-|
E|------------------------2222----------|
B|--------------------------------------|x3

Outro
D|-----------------------------------------------------------------|
A|-9---9-7-5----5-4---2222----44444444-2222----44444444-/9---------|
E|------------------------2222-------------2222--------------------|
B|-----------------------------------------------------------------|

Tabbed By Jack Mills

            
            
Suggest correction
Creating personal tab
Creating personal tab
You can edit any tab online and save it as your Personal.

You can edit, replace or remove any tab part or add personal notes – all changes will be seen only by you.

Personal tabs can be accessed anytime from any device, even offline.
Learn more »
comments
print report bad tab
guest
You may want to rate the tab now too:
select rating
Wanna post a correction for this tab? Suggest correction