Oops, an error
Loading. Please wait.

Besitos Tab

version 1
version 1

Whole song

Interactive

56,185 views 66 this week
3 commentsread comments
1 2 3 4 5
x 7
add to favorites
launch autoscroll
font size
0
reset
how to read this tab
guitar tuner
Autoscroll
slow
fast
+/-
esc
set tempo
stop
Help us to improve Ultimate-Guitar.com Take our survey!
×
Author
Difficulty
Tuning
Capo
  follow
intermediate
D A D G B E
2nd fret
Tuning: Dropped-D
Capo 2

[Intro] (4x)
E|--------------------------------------------|
B|-h800h12000h800h12000h800h12000h800h12000---|
G|--------------------------------------------|
D|--------------------------------------------|
A|--------------------------------------------|
D|--------------------------------------------|

E|----------------------------------------------------|
B|-7h00h(10)000h700h(10)000h700h(10)000h700h(10)000---|
G|----------------------------------------------------|
D|----------------------------------------------------|
A|----------------------------------------------------|
D|----------------------------------------------------|

[Verse]
E|-------------------------------------------------------------------|
B|-------------------------------------------------------------------|
G|-------------------------------------------------------------------|
D|-5-5-5-2-2-2-------2-2-2-5-2-5-2-4-4-4-1-1-1-------1-1-1-4-1-4-1---| (2x)
A|-------------2-2-2---------------------------2-2-2-----------------|
D|-------------------------------------------------------------------|

[Chorus] (2x)
E|---------------------------------------------------|
B|---------------------------------------------------|
G|-9---9-7-5---5-4-2-2-2-2-2-2-2-2-4-4-4-4-4-4-4-4---|
D|-9---9-7-5---5-4-2-2-2-2-2-2-2-2-4-4-4-4-4-4-4-4---|
A|-7---7-5-3---3-2-0-0-0-0-0-0-0-0-2-2-2-2-2-2-2-2---|
D|---------------------------------------------------|

[Pre-Verse]
E|--------------------------------------------|
B|-h800h12000h800h12000h800h12000h800h12000---|
G|--------------------------------------------|
D|--------------------------------------------|
A|--------------------------------------------|
D|--------------------------------------------|

[Verse 2] (Palm-Muted)
E|----------------------------------------|
B|----------------------------------------|
G|-12-12-12-9-9-9-------9-9-9-12-9-12-9---|
D|-12-12-12-9-9-9-9-9-9-9-9-9-12-9-12-9---|
A|-10-10-10-7-7-7-9-9-9-7-7-7-10-7-10-7---|
D|----------------9-9-9-------------------|

E|----------------------------------------|
B|----------------------------------------|
G|-11-11-11-8-8-8-------8-8-8-11-8-11-8---|
D|-11-11-11-8-8-8-9-9-9-8-8-8-11-8-11-8---|
A|--9--9--9-6-6-6-9-9-9-6-6-6--9-6--9-6---|
D|----------------9-9-9-------------------|

[Chorus]
E|---------------------------------------------------|
B|---------------------------------------------------|
G|-9---9-7-5---5-4-2-2-2-2-2-2-2-2-4-4-4-4-4-4-4-4---|
D|-9---9-7-5---5-4-2-2-2-2-2-2-2-2-4-4-4-4-4-4-4-4---|
A|-7---7-5-3---3-2-0-0-0-0-0-0-0-0-2-2-2-2-2-2-2-2---|
D|---------------------------------------------------|

[Bridge] 
(Palm-Muted Clean)
E|-----------------------------------------------------------|
B|-----------------------------------------------------------|
G|-----------------------------------------------------------|
D|-----------------------------------------------------------|
A|----7-10----7-10----7-10----7-10---6-9---6-9---6-9---6-9---|
D|-10------10------10------10------9-----9-----9-----9-------|

[Breakdown]
E|-------------------------------------------------------------------|
B|-------------------------------------------------------------------|
G|-------------------------------------------------------------------|
D|-5-5-5-2-2-2-------2-2-2-5-2-5-2-4-4-4-1-1-1-------1-1-1-4-1-4-1---| (2x)
A|-------------2-2-2---------------------------2-2-2-----------------|
D|-------------------------------------------------------------------|

[Chorus] (4x)
E|---------------------------------------------------|
B|---------------------------------------------------|
G|-9---9-7-5---5-4-2-2-2-2-2-2-2-2-4-4-4-4-4-4-4-4---|
D|-9---9-7-5---5-4-2-2-2-2-2-2-2-2-4-4-4-4-4-4-4-4---|
A|-7---7-5-3---3-2-0-0-0-0-0-0-0-0-2-2-2-2-2-2-2-2---|
D|---------------------------------------------------|


************************************

| h  Hammer-on

************************************
Suggest correction
comments
print report bad tab
3 comments total.
+3 reply
hellokrysta 112 Jan 17, 2011 01:38 PM

FINISH THY TABBBBBBBBBBB.

+1 reply
xdays_ive_diedx 570 Feb 01, 2011 03:57 PM

I would, but I'm a bit busy with College right now. Possibly over my next break I'll get around to tabbing the rest of this out.

+2 reply
boosted928 51 Feb 22, 2011 07:39 PM

Hey if you could finish next time you got some free time on your hands that would be greatly appreciated and if you need some parts I'll help. I got the little ending solo thing and the breakdown (mostly).

guest
You may want to rate the tab now too:
select rating
Wanna post a correction for this tab? Suggest correction