Oops, an error
Loading. Please wait.

Bulletproof Love Bass Tab

version 1
version 1

Whole song

Interactive

13,887 views 21 this week
2 commentsread comments
1 2 3 4 5
x 8
add to favorites
launch autoscroll
font size
0
reset
guitar tuner
Autoscroll
slow
fast
+/-
esc
set tempo
stop
Help us to improve Ultimate-Guitar.com Take our survey!
×
Author
Difficulty
Tuning
intermediate
D A D G B E
Start after he kinda screams yeahhh


G|--------------------------------------------------------------------|
D|--------------------------------------------------------------------|     x2
A|----------------------------------1-1-1-1-1-1-1-1-1-1-1-1-1-1-1-1---|
D|--4-4-4-4-4-4-4-4-4-4-4-4-4-4-4-4-----------------------------------|


G|-------------------------------------------------------------------------|
D|-------------------------------------------------------------------------|
A|-----------------------------------------2-2--222-2-2--222--4-4-444------|
D|--4-4--444--4-4--444--4-4--444--4-4--444---------------------------------|


G|----------------------------------------------------------------------------|
D|----------------------------------------------------------------------------|
A|---------------------------------------2-2--222-2-2--222--4-4-4-4-4-4-4-4-4-|
D|-4-4--444--4-4--444--4-4--444--4-4--444-------------------------------------|

G|--------------------------------------------------------------------|
D|--------------------------------------------------------------------|     x2
A|----------------------------------1-1-1-1-1-1-1-1-1-1-1-1-1-1-1-1---|
D|--4-4-4-4-4-4-4-4-4-4-4-4-4-4-4-4-----------------------------------|


G|-------------------------------------------------|
D|-------------------------------------------------|        x2
A|--2--2--2-2--2--2--2-2--1--1--1-1--1--1--1-1-----|
D|-------------------------------------------------|


G|----------------------------------------------------------------------|
D|----------------------------------------------------------------------|
A|---2-2-2-2-2-2-2-2-2-2-2-2-2-2-2-2-4-4-4-4-4-4-4-4-4-4-4-4-4-4-4-4----|
D|----------------------------------------------------------------------|

G|--------------------------------------------------------------|
D|--------------------------------------------------------------|
A|--------------------------------------------------------------|
D|--4-----------------------------------------------------------|


G|---------------------------------------------------------------------|
D|---------------------------------------------------------------------|
A|------------------1-1-1-1-1-1-1-1-2-2-2-2-2-2-2-2-4-4-4-4-4-4-4-4----|
D|--4-4-4-4-4-4-4-4----------------------------------------------------|


G|----------------------------------------------------------------------|
D|----------------------------------------------------------------------|
A|-------------------1-1-1-1-1-1-1-2-2-2-2-2-2-2-2-1-1-1-1-1-1-1-1------|
D|--4-4-4-4-4-4-4-4-----------------------------------------------------|


G|---------------------------------------------------------|
D|---------------------------------------------------------|
A|------------1---------2------1---1---1---1------1--1-----|
D|--0------------------------------------------------------|

G|-----------------------------------------------------------------------|
D|-----------------------------------------------------------------------|
a|-----------------1-1-1-1-1-1-1-1--2-2-2-2-2-2-2-2--4-4-4-4-4-4-4-4-----|
D|-0-0-0-0-0-0-0-0-------------------------------------------------------|

G|-----------------------------------------------|
D|-----------------------------------------------|
A|-----------------------------------------------|
D|---4---------------------------3---------------|


G|--------------------------------------------------------------------|
D|--------------------------------------------------------------------|     x2
A|----------------------------------1-1-1-1-1-1-1-1-1-1-1-1-1-1-1-1---|
D|--4-4-4-4-4-4-4-4-4-4-4-4-4-4-4-4-----------------------------------|


G|-------------------------------------------------|
D|-------------------------------------------------|        x2
A|--2--2--2-2--2--2--2-2--1--1--1-1--1--1--1-1-----|
D|-------------------------------------------------|


G|---------------------------------------------------------------------|
D|---------------------------------------------------------------------|    x2
A|---2-2-2-2-2-2-2-2-2-2-2-2-2-2-2-2-4-4-4-4-4-4-4-4-4-4-4-4-4-4-4-4---|
D|---------------------------------------------------------------------|


G|---------------------------------------|
D|---------------------------------------|   x4
A|---------------------------------------|
D|--4-4-4-4-4-4-4-4-4-4-4-4-4-4-4-4-4----|


G|---------|
D|---------|
A|---------|
D|-----4-4-|
Suggest correction
comments
print report bad tab
2 comments total.
+2 reply
ahoynickrad 74 Apr 28, 2013 12:06 AM

Doesn't sound too good, I can upload one which may be more correct if you'd like?

+1 reply
GreendayMCR182 10 Jun 24, 2013 05:34 PM

Yes please do

guest
You may want to rate the tab now too:
select rating
Wanna post a correction for this tab? Suggest correction