Oops, an error
Loading. Please wait.

Bulletproof Love Tab

version 1
version 1

Whole song

  • Mine is a clear version and in standard tuning, wh... Show more
  • The intro and chorus were mainly the huge differen... Show more

Interactive

131,094 views 90 this week
5 commentsread comments
1 2 3 4 5
x 14
add to favorites
launch autoscroll
font size
0
reset
how to read this tab
guitar tuner
Autoscroll
slow
fast
+/-
esc
set tempo
stop
Help us to improve Ultimate-Guitar.com Take our survey!
×
-----------------------------------------------------------------------------
                     Bulletproof Love - Pierce the Veil
-----------------------------------------------------------------------------

Tabbed by:Poppunk815

Standard Tuning

This is my first tab. tried my best!


[Intro]
e|-----------------------------        :-----------------------|
B|--------11-9-----------------        :--------11-9-----------|
G|-----11------11-10-11-------- (x4)   :-----11-----11-10-11---| (x2)
D|--11-------------------------        :9-11-------------------|
A|9----------------------------        :-----------------------|
E|-----------------------------        :-----------------------|
  x x x                                 x x  x


e|----------------------------------------------|
B|---------11-9------------------12-11-9--------|
G|---10-11-----11-10-11----10-11---------11-10--|
D|11--------------------11----------------------|
A|----------------------------------------------|
E|----------------------------------------------|
  x  x  x               x  x  x


e|---------------------------------------------|
B|12-12-11-11-9-9-------9-9-11-11-9-9----------|
G|----------------11-11------------------------|
D|---------------------------------------------|
A|---------------------------------------------|
E|---------------------------------------------|

e|-----------------------------------------------|
B|-----------------------------------------------|
G|11-11--------11-11-10-10-----------------------|
D|------11-11-------------14-14-11~--------------|
A|-----------------------------------------------|
E|-----------------------------------------------|

e|--------------------------------------|
B|--------------------------------------|
G|------11-----------11-----------------|
D|---11----11-----11----11--------------|(x4)
A|-9-----------9------------------------|
E|--------------------------------------|

e|--------------------------------------|
B|--------------------------------------|
G|-------10----------10-----------------|
D|----11----11----11----11--------------|(x4)
A|--8-----------8-----------------------|
E|--------------------------------------|

[Pre-Verse/chorus]
e|------------------------------------------------------|
B|------------------------------------------------------|
G|------------------------------------------------------|  (x2)
D|-----------------6666---------------------------------|
A|--9999----------------8888-----------8888-------------|
E|-------9999-7777-----------9999-7777------------------|

[Verse]
e|---------------------------------       :-----------------------|
B|--------11-9---------------------       :--------11-9-----------|
G|-----11-----11-10-11-------------(x4)   :-----11-----11-10-11---| (x2)
D|--11-----------------------------       :9-11-------------------|
A|9--------------------------------       :-----------------------|
E|---------------------------------       :-----------------------|
  x x  x                                   x x  x

e|------------------------------------------------------|
B|---------11-9------------------12-11-9----------------|
G|---10-11-----11-10-11----10-11---------11-10----------|
D|11--------------------11------------------------------|
A|------------------------------------------------------|
E|------------------------------------------------------|
  x  x  x               x  x  x


[Chorus]
(same as pre-verse)

 "ill sing along, but im barely hanging on..."
e|----------------------------------|
B|----------------------------------|
G|---11---10----11---10-------------|
D|---11---11----11---11-------------|
A|---9----8-----9----8--------------|
E|----------------------------------|

 "And now theres nothing to do...."
e|----------------------------------|
B|----------------------------------|
G|---11--13-------------------------|
D|---11--13-------------------------|
A|---9---11-------------------------|
E|----------------------------------|
Find out rhythm.(cant figure out lead)

 [Verse 2]
e|-----------------------------------|
B|-----------------------------------|
G|--11---10---11---10----------------|
D|--11---11---11---11----------------|
A|--9----8----9----8-----------------|
E|-----------------------------------|
Find out rhythm.
Suggest correction
comments
print report bad tab
5 comments total. Showing first comments.
0 reply
korman7 406 Aug 30, 2010 02:50 AM

alright....so i figured out that theres a capo on the second fret. and i think the beginning 2 chords( with the capo on the 2nd) are an E into and A. im not great with theory so i could be wrong...but yea.

The second part of the chorus with the alternate picking i think goes like this


e:-0-0-7-0-5-0-4-0-5-0-4-0-2-0-0-0---| x3, and the last bar i cant figure out
B:----------------------------------|
G:----------------------------------|
D:----------------------------------|
A:----------------------------------|
E:----------------------------------|

0 reply
RightOnTime 10 Dec 15, 2010 03:04 AM

This is the part for the 3rd verse at the 2:00 mark...(capo 2nd fret)


e:-------------------------------------------------------------
B:-------------------------------------------------------------
G:--1---2-1---1---1-----2-1-----------------------------------1
D:4---2-----4---1---4-1-----4-2---4/6-4---2-4-2-1--/4-2--1-2-4-
A:------------------------------4-------4---------2-----2------
E:-------------------------------------------------------------
(This isn't fair...)

e:------------------------------------------------------------|
B:------0-----------------------------------------------------|
G:--1-----1-------2-1---1-----------1-------1-----------------|
D:4---2-----4-2-1-----1----4-2-1------4---4---4-2-------------|
A:--------------------------------4-----4---------3~~~~-------|
E:------------------------------------------------------------|
(And god dammit...)

0 reply
JoseNunez 10 Mar 29, 2011 07:29 PM

I----------------------------------------------------------I
I----------------------------------------------------------I
I----------------------------------------------------------I
I----------------------------------------------------------I
I--11--9---------------------------------------------------I
I------------11---9----7--6--4--2~-------------------------I

Tony Perry (Lead Guitarist) does that just before the second verse.

guest
You may want to rate the tab now too:
select rating
Wanna post a correction for this tab? Suggest correction