Oops, an error
Loading. Please wait.

Bulletproof Love Tab

version 2
version 2

Whole song

Interactive

60,586 views 225 this week
3 commentsread comments
1 2 3 4 5
excellent!
x 33
add to favorites
launch autoscroll
font size
0
reset
how to read this tab
guitar tuner
Tab Pro tools
  • play this tab
  • loop segment
  • change instrument
  • show fretboard
  • metronome
×
Best way to learn
"Bulletproof Love"
Autoscroll
slow
fast
+/-
esc
set tempo
stop
Contributor
Title: Bulletproof Love
Artist: Pierce The Veil
Album: Selfish Machines(2010)

Tabbed by: angeluskai@hotmail.com

Tuning: Standard - EADGBe


*****NOTE*****
I know, this is a pretty long tab for a song. It includes both guitar parts
(guitar 1: lead, guitar 2: rhythm). This song is usually played with a capo
on the second fret, but I set it up son you don't need one. I've included a
few of the fillers at the end. This tab basically gives you the notes and
chords, leaving you to figure out the timing and patterns. Enjoy.

************************************

| /   slide
| h   hammer-on
| p   pull-off
| ~   vibrato
| b   Bend

************************************

Intro/Main Riff:
e:-----------------------------     -----------------------|
B:--------11-9-----------------     --------11-9-----------|
G:-----11------11-10-11--------(x4) -----11-----11-10-11---|(x2)
D:--11-------------------------     9-11-------------------|
A:9----------------------------     -----------------------|
E:-----------------------------     -----------------------|

e:----------------------------------------------|
B:---------11-9------------------12-11-9--------|
G:---10-11-----11-10-11----10-11---------11-10--|
D:11--------------------11----------------------|(Play entire part twice)
A:----------------------------------------------|
E:----------------------------------------------|

e:----------------------------------------------------------------------|
B:12-12-11-11-9-9-------9-9-11-11-9-9-----------------------------------|
G:----------------11-11---------------11-11--------11-11-10-10----------|
D:------------------------------------------11-11-------------14-14-11~-|
A:----------------------------------------------------------------------|
E:----------------------------------------------------------------------|

e:------------|
B:------------|
G:------10----|
D:---11----11-|(x8)
A:-9----------|
E:------------|


Pre-Verse:
e:-------------------------------------------|
B:-------------------------------------------|
G:-------------------------------------------|(x2)
D:-----------------6666----------------------|
A:--9999----------------8888-----------8888--|
E:-------9999-6666-----------9999-6666-------|


Verse 1: Main Riff/Intro


Chorus
e:-------------------------------------------|
B:-------------------------------------------|
G:-------------------------------------------|(x2)
D:-----------------6666----------------------|
A:--9999----------------8888-----------8888--|
E:-------9999-6666-----------9999-6666-------|

e:----------------------------------------|
B:-14p0-12p0-11p0-12p0-11p0-9p0-11p0-7p0--|(x2)
G:----------------------------------------|
D:----------------------------------------|
A:----------------------------------------|
E:----------------------------------------|

  -------------------------------------------|
  -12p0-11p0-9p0-11p0-12p0-11p0-9p0-11p0-7p0-|
  -------------------------------------------|
  -------------------------------------------|
  -------------------------------------------|
  -------------------------------------------|
        [  Repeat Above through chorus  ]

e:------------------------|
B:----------------------9-|
G:--------------8-10-11---|
D:-------8-9-11-----------|
A:----11------------------|
E:------------------------|


Pre-Verse
e:----------------------|
B:----------------------|
G:----------------------|
D:--/6-4----------------|
A:--------/6-4----------|
E:--------------/6-4-6--|



Verse 2
e:---------------------------------------------------------------------------|
B:---------------------------------------------------------------------------|
G:---------------------------------------------------------------------------|
D:-----8---9-8----8---8------9-8--------------------------------------------8|
A:9-11---9-----11---8---11-8-----11-9----11h13-11----9-11-9-8---9h11-8-9-11--|
E:------------------------------------11----------11----------9--------------|

e:---------------------------------------------------------------------------|
B:---------------------------------------------------------------------------|
G:---------------------------------------------------------------------------|
D:-------8---11-8----8-----8------8------------------------------------------|
A:--9-11---9-----11-----8---11-8----11-9-8----11h13-11----11-13-11-----------|
E:-----------------------------------------11----------11----------11----10--|


Post-Verse/Bridge
e:-----------14-------13------11------9------6------|
B:--------11----11/-9----9/-7----7/-6---6/-4---4/-3-|
G:---8-10-------------------------------------------|
D:-8------------------------------------------------|
A:--------------------------------------------------|
E:--------------------------------------------------|

 ----14-------13------11------9-----/14-13----------|
 -11----11/-9----9/-7----7/-6---6/------------3~-6~-|
 ---------------------------------------------------|(x2)
 ---------------------------------------------------|
 ---------------------------------------------------|
 ---------------------------------------------------|

e:---|-9-----     e:--9---------|
B:--6|---7/-6     B:----7/-6/-7-|
G:---|-------     G:------------|
D:---|------- (x4)D:------------|
A:---|-------     A:------------|
E:---|-------     E:------------|


Chorus
e:-------------------------------------------|
B:-------------------------------------------|
G:-------------------------------------------|(x2)
D:-----------------6666----------------------|
A:--9999----------------8888-----------8888--|
E:-------9999-6666-----------9999-6666-------|

e:----------------------------------------|
B:-14p0-12p0-11p0-12p0-11p0-9p0-11p0-7p0--|(x2)
G:----------------------------------------|
D:----------------------------------------|
A:----------------------------------------|
E:----------------------------------------|

  -------------------------------------------|
  -12p0-11p0-9p0-11p0-12p0-11p0-9p0-11p0-7p0-|
  -------------------------------------------|
  -------------------------------------------|
  -------------------------------------------|
  -------------------------------------------|
        [  Repeat Above through chorus  ]

e:-----------------------------------------------------------------|
B:----------------------9---------------------------------------9~-|
G:--------------8-10-11-------------------------8-8-10-10-11-11----|
D:-------8-9-11-------------------8-8-9-9-11-11--------------------|
A:----11--------------------11-11----------------------------------|
E:-----------------------------------------------------------------|


End
e:-----|
B:-----|
G:-----|
D:--4--|
A:--4--|
E:--2--|



Guitar 2

Intro
e:------------    ----------    ---------------|
B:------------    -----7-7--    --------9--9---|
G:-----11-11--    -----8-8--    -------10-10---|
D:-----11-11--(x8)-9-9------(x4)-11-11---------|(x4)
A:-9-9--------    ----------    ---------------|
E:------------    ----------    ---------------|
           [------Play twice-------------------|

            ----------    -------------    ----|
            -----7-7--    --------9--9-    --9-|
Second time -----8-8--    -------10-10-    -10-|
play this   -9-9------(x4)-11-11-------(x2)-11-|
at end      ----------    -------------    ----|
            ----------    -------------    ----|


Pre-Verse
e:------------------|
B:------------------|
G:--11--10--11--10--|
D:--11--11--11--11--|
A:---9---8---9---8--|
E:------------------|


Verse 1: Intro/Different strum pattern same chords


Chorus
e:----------------------------------------------------------------|
B:--------------------7--6--10--7--6--10--------------------------|
G:--11--10--11--10----8--7---x--8--7---x---------------------8-10~|
D:--11--11--11--11----9--8---8--9--8---8-------------8-10-11------|
A:---9---8---9---8---------------------------8-9-10---------------|
E:----------------------------------------------------------------|


Verse 2:
e:------------------------------|
B:------------------------------|
G:--11--10--8--6----11-----8----|
D:--11--11--8--6----11--8--8--8-|
A:---9---8--6--4-----9--8--6--5-|
E:----------------------6-------|

e:---------------------------------------------|
B:---------------------------------------------|
G:--------8--7--------7---8--7---------11--10--|
D:--------8--8--9--8--8---8--8--9--11--11--11--|
A:-5-6-8--6--5--9--8--5---6--5--9--11---9---8--|
E:--------------7--6------------7---9----------|

Chorus
e:----------------------------------------------------------------|
B:--------------------7--6--10--7--6--10--------------------------|
G:--11--10--11--10----8--7---x--8--7---x---------------------8-10-|
D:--11--11--11--11----9--8---8--9--8---8-------------8-10-11------|
A:---9---8---9---8---------------------------8-9-10---------------|
E:----------------------------------------------------------------|

End
e:--------------    ------|
B:--------------    ------|
G:--11--13--10--    --11--|
D:--11--11--11--(x4)--11--|
A:---9---9---9--    ---9--|
E:--------------    ------|

Fillers

Pre-Verse/Chorus
e:--------14----------14----------13----------13-|
B:-----14----14----14----14----14----14----14----|
G:--15----------15----------15----------15-------|
D:-----------------------------------------------| (x2)
A:-----------------------------------------------|
E:-----------------------------------------------|


Verse 2
e:-----------------------------------------------|
B:-----------------------------------------------|
G:------6-------------10b11-10~---8b10-8~--------|
D:--6-8---8-6-8------------------------------8-8-|
A:--------------9~---------------------------5-5-|
E:-----------------------------------------------|
comments
print report bad tab
3 comments total.
+1 reply
EAH wrote on September 8 2013, 02:01 pm

Wow this song is really confusing. I love that fast part after the chorus, but can you do it on Acoustic?

0 reply
13TheZip wrote on December 23 2013, 03:44 am

great tab!!!!!!!!

0 reply
haf wrote on October 8 2014, 10:08 am

looks pretty good, im really digging it, thanks man!

I want to post or [tab]
guest
You may want to rate the tab now too:
select rating
Please do not post tabs as comments. Select "correction" instead!