Oops, an error
Loading. Please wait.

Bulletproof Love Tab

version 5
version 5

Whole song

  • Mine is a clear version and in standard tuning, wh... Show more
  • The intro and chorus were mainly the huge differen... Show more

Interactive

274 views 1 this week
1 commentread comment
1 2 3 4 5
2 more votes to show rating
add to favorites
launch autoscroll
font size
0
reset
how to read this tab
guitar tuner
Autoscroll
slow
fast
+/-
esc
set tempo
stop
Author
Difficulty
Capo
intermediate
2nd fret
About this tab version
The intro and chorus were mainly the huge difference in this tab. This intro and chorus sounds a bit more closer to the original, if not, then exactly. Was this info helpful? Yes No
Tabbed by: PierceTheKnight
Email: tatianna0498@gmail.com
Based off the YouTUbe video: https://youtu.be/KsxU6LLWnzc


*Mostly Lead Guitar
**Side Note: When playing live, they mainly play the song half step down with capo still on 2nd fret.

[Intro] [x2]

e|----------------6------------------|               e|----------------6-------------------------|
B|--------------------9--7--6--7-----|               B|----------------------9--7--7--7----------|
G|-----------6-----------------------| [x3] next >   G|-----------6------------------------------|
D|-------8---------------------------|               D|-------8----------------------------------| 
A|---9-------------------------------|               A|---9--------------------------------------|
E|-----------------------------------|               E|------------------------------------------|

then it goes...

e|-----------6--------------|              e|-----------6---------------------|
B|--------7-----9--7--6--7--|              B|--------7-----9--7--6--7---------|
G|-----8--------------------|  [x2] >      G|--6--6---------------------------|
D|--9-----------------------|              D|---------------------------------|
A|--------------------------|              A|---------------------------------|
E|--------------------------|              E|---------------------------------|

[Last Variation] 

e|------------7--6-----------|
B|---------7--------9--7--6--|
G|--6--6---------------------|
D|---------------------------|
A|---------------------------|
E|---------------------------|


[Verse]

*Hit in pairs! Still palm muting!*

e|--7-7--6-6--------------------6-6-----------------------------------------------|
B|------------9-9---7-7---9-9---------9-9----7-7---6-6---7-7---6-6----------------|
G|-------------------------------------------------------------------8-8---6-6~---|
D|--------------------------------------------------------------------------------|
A|--------------------------------------------------------------------------------|
E|--------------------------------------------------------------------------------|

*Release Palm Mute*

e|------------------------------------------|
B|-----------6------------------------------|
G|----------------6-------------------------| (Pick this sequence about 8 times.)
D|-------8----------------------------------|
A|---9--------------------------------------|
E|------------------------------------------|


[Chorus]

e|--------------------------------------------------------------------------------------------------------|
B|--------------------------------------------------------------------------------------------------------|
G|--------------------------------------------------------------------------------------------------------|
D|--4-4-4-4---------------------6-6-6-6--3-3-3-3---------------------3-3-3-3---4-4-4-4--------------------|
A|-----------4-4-4-4------------------------------4-4-4-4------------------------------4-4-4-4------------|
E|-------------------6-6-6-6-------------------------------6-6-6-6-------------------------------6-6-6-6--|

e|---------------------------------------|    e|-------14----------14----------13----------13------| riff
B|---------------------------------------|    B|----14----14----14----14----14----14----14----14---| played
G|---------------------------------------|    G|-15----------15----------15----------15------------| in 
D|--6-6-6-6---3-3-3-3--------------------|    D|---------------------------------------------------| the
A|---------------------4-4-4-4-----------|    A|---------------------------------------------------| chorus
E|------------------------------6-6-6-6--|    E|---------------------------------------------------| [x2]


[Play this again]

e|----------------6------------------|               e|----------------6-------------------------|
B|--------------------9--7--6--7-----|               B|----------------------9--7--7--7----------|
G|-----------6-----------------------| [x3] next >   G|-----------6------------------------------|
D|-------8---------------------------|               D|-------8----------------------------------| 
A|---9-------------------------------|               A|---9--------------------------------------|
E|-----------------------------------|               E|------------------------------------------|

then it goes...

e|-----------6--------------|              e|-----------6---------------------|
B|--------7-----9--7--6--7--|              B|--------7-----9--7--6--7---------|
G|-----8--------------------|  [x2] >      G|--6--6---------------------------|
D|--9-----------------------|              D|---------------------------------|
A|--------------------------|              A|---------------------------------|
E|--------------------------|              E|---------------------------------|


e|------------7--6-----------|
B|---------7--------9--7--6--|
G|--6--6---------------------|
D|---------------------------|
A|---------------------------|
E|---------------------------|

e|----------------6------------------|               e|----------------6-------------------------|
B|--------------------9--7--6--7-----|               B|----------------------9--7--7--7----------|
G|-----------6-----------------------| [x3] next >   G|-----------6------------------------------|
D|-------8---------------------------|               D|-------8----------------------------------| 
A|---9-------------------------------|               A|---9--------------------------------------|
E|-----------------------------------|               E|------------------------------------------|

then it goes...

e|-----------6--------------|              e|-----------6---------------------|
B|--------7-----9--7--6--7--|              B|--------7-----9--7--6--7---------|
G|-----8--------------------|  [x2] >      G|--6--6---------------------------|
D|--9-----------------------|              D|---------------------------------|
A|--------------------------|              A|---------------------------------|
E|--------------------------|              E|---------------------------------|


[Play Chorus Again]

(Tony's Part played at near the end of the chorus *Remember capo on 2nd fret!) 

e|-0-0--9p0--7p0---6p0--7p0--6p0--4p0--6p0-----|
B|---------------------------------------------|  [x2]
G|---------------------------------------------|
D|---------------------------------------------|
A|---------------------------------------------|
E|---------------------------------------------|

e|-0-0--9p0-7p0-6p0-7p0-6p0-4p0-6p0-7p0-6p0-4p0-6p0-7p0-6p0-4p0-6p0-|
B|------------------------------------------------------------------|
G|------------------------------------------------------------------|
D|------------------------------------------------------------------|
A|------------------------------------------------------------------|
E|------------------------------------------------------------------|

e|-0-0--9p0--7p0---6p0--7p0--6p0--4p0--6p0-----|
B|---------------------------------------------|  [x2]
G|---------------------------------------------|
D|---------------------------------------------|
A|---------------------------------------------|
E|---------------------------------------------|

e|-0-0--9p0-7p0-6p0-7p0-6p0-4p0-6p0-7p0-6p0-4p0-6p0-7p0-6p0-4p0-|
B|--------------------------------------------------------------|
G|--------------------------------------------------------------|
D|--------------------------------------------------------------|
A|--------------------------------------------------------------|
E|--------------------------------------------------------------|

[Riffs]

e|------------------------------|   e|-------14----------14----------13----------13-----|
B|---------------------------9--|   B|----14----14----14----14----14----14----14----14--|
G|----------------8--10--11-----| > G|15----------15----------15----------15------------|
D|------8--9--11----------------|   D|--------------------------------------------------|
A|--11--------------------------|   A|--------------------------------------------------|
E|------------------------------|   E|--------------------------------------------------|

(Reeeaalllyyy long riff played palm muted!)

e|-------------------|------------------|-----------------------------|-----------|
B|-------------------|------------------|-----------------------------|-----------|
G|------3---4-3---3--|---3-----4-3------|-----------------------------|-------3---|
D|-4-6----4-----6----|-3---6-4-----6-4--|---6h8---4-4h6-4------4h6----|-3-4-6-----|
A|-------------------|------------------|-6-----6----------8-4-----4--|-----------|
E|-------------------|------------------|-----------------------------|-----------|

e|------------------|-------------------|-----------------------|
B|------------------|-------------------|-----------------------|
G|-----3---6-3---3--|---3------3--------|-----------------------|
D|-4-6---4-----6----|-3---6-4----6-4-3--|---6h8----6-8-6--------|
A|------------------|-------------------|-6-----6--------6-5----|
E|------------------|-------------------|-----------------------|

e|-----------------------|
B|-----------------------|
G|---------7--10---------|
D|----/8-----------------|
A|-----------------------|
E|-----------------------|

e|-----14-------13------11------9--------6-------------|
B|-/11----11\9-----9\7-----7\6-----6\4-------4\3-------|
G|-----------------------------------------------------|
D|-----------------------------------------------------|
A|-----------------------------------------------------|
E|-----------------------------------------------------|

e|-----14------13-------11-------9------9/14\13---------|
B|-/11----11\9-----9\7------7\6-----6-------------------|
G|------------------------------------------------------|
D|------------------------------------------------------|
A|------------------------------------------------------|
E|------------------------------------------------------|

e|-----14-------13------11------9--------6-------------|
B|-/11----11\9-----9\7-----7\6-----6\4-------4\3-------|
G|-----------------------------------------------------|
D|-----------------------------------------------------|
A|-----------------------------------------------------|
E|-----------------------------------------------------|

e|-----------------------------|   
B|-----------------------------|   
G|-----------------------------|   
D|-12-12-12---15-15-15---------|   
A|-----------------------------|   
E|-----------------------------|   

e|-----14-------13------11------9--------6-------------|
B|-/11----11\9-----9\7-----7\6-----6\4-------4\3-------|
G|-----------------------------------------------------|
D|-----------------------------------------------------|
A|-----------------------------------------------------|
E|-----------------------------------------------------|

e|-----14------13-------11-------9------9/14\13---------|
B|-/11----11\9-----9\7------7\6-----6-------------------|
G|------------------------------------------------------|
D|------------------------------------------------------|
A|------------------------------------------------------|
E|------------------------------------------------------|

e|-----14-------13------11------9--------6-------------|
B|-/11----11\9-----9\7-----7\6-----6\4-------4\3-------|
G|-----------------------------------------------------|
D|-----------------------------------------------------|
A|-----------------------------------------------------|
E|-----------------------------------------------------|

e|---------9-|-------9-----------|
B|---/4-6----|--7\6--------------|
G|-----------|-------------------| [Repeat 2nd half about 4 times
D|-----------|-------------------|  ending on the 6 fret b note]
A|-----------|-------------------|
E|-----------|-------------------|

e|-------14----------14----------13----------13------------|
B|----14----14----14----14----14----14----14----14---------|
G|-15----------15----------15----------15------------------|
D|---------------------------------------------------------|
A|---------------------------------------------------------|
E|---------------------------------------------------------|

[Or if you want to do the chords played (Rhythm Guitar)]

e|---9---------------13--------|
B|---11--------------11--------|
G|---11---------------X--------|
D|---11--------------10--------|
A|-------------------11--------|
E|-----------------------------|


[Chorus Again]

e|----------------------------------------------------------------------------------------------------------|
B|----------------------------------------------------------------------------------------------------------|
G|----------------------------------------------------------------------------------------------------------|
D|-4-4-4-4-----------------6-6-6-6-3-3-3-3-----------------3-3-3-3-4-4-4-4-----------------6-6-6-6----------|
A|---------4-4-4-4-------------------------4-4-4-4-------------------------4-4-4-4------------------4-4-4-4-|
E|-----------------6-6-6-6-------------------------6-6-6-6-------------------------6-6-6-6------------------|

e|---------|
B|---------|
G|---------|
D|---------|
A|---------|
E|-6-6-6-6-|

e|-0-0--9p0-7p0-6p0-7p0-6p0-4p0-6p0-------|
B|----------------------------------------|
G|----------------------------------------|
D|----------------------------------------|   [x2]
A|----------------------------------------|
E|----------------------------------------|

e|-0-0--9p0-7p0-6p0-7p0-6p0-4p0-6p0-7p0-6p0-4p0-6p0-7p0-6p0-4p0-6p0-|
B|------------------------------------------------------------------|
G|------------------------------------------------------------------|
D|------------------------------------------------------------------|
A|------------------------------------------------------------------|
E|------------------------------------------------------------------|

e|-0-0--9p0-7p0-6p0-7p0-6p0-4p0-6p0-------|
B|----------------------------------------|
G|----------------------------------------|
D|----------------------------------------|   [x2]
A|----------------------------------------|
E|----------------------------------------|

e|-0-0--9p0-7p0-6p0-7p0-6p0-4p0-6p0-7p0-6p0-4p0-6p0-7p0-6p0-4p0-|
B|--------------------------------------------------------------|
G|--------------------------------------------------------------|
D|--------------------------------------------------------------|
A|--------------------------------------------------------------|
E|--------------------------------------------------------------|


e|-------------------------|
B|--------------------9----|
G|------------8-10-11------| 
D|-----8-9-11--------------| [x2]
A|--11---------------------|
E|-------------------------|


[Outro]
(When strumming these octaves, slide up/down to the next one. Also down strumming is mostly preferable.)

e|------|        --------|            ------|
B|------|        --------|            ------|
G|--11--|        ---13---|            -10---|
D|--x---| [x3]   ---x----| [x4]       -x----| [x10]
A|--9---|        ---11---|            -8----|
E|------|        --------|            ------|

Hit this sequence about 4 times then the optional chord you could hit to end it if you want is:

e|-------------|
B|-------------|
G|-----9---9---|
D|-----9---9---|
A|-----7---7---|
E|-------------|

Enjoy this really long tab. :D Reviews would be nice.



************************************

| x  Dead note
| h  Hammer-on
| p  Pull-off
| /  Slide up
| \  Slide down
| ~  Vibrato

************************************
Suggest correction
Give kudos to tab author, rate the tab!
1 2 3 4 5
comments
print report bad tab
1 comment total.
0 reply
JeffTheReaper 13 Feb 08, 2017 08:51 PM

Sounds just like the audio! Great job!

guest
You may want to rate the tab now too:
select rating
Wanna post a correction for this tab? Suggest correction