Oops, an error
Loading. Please wait.
We have an official Bulls In The Bronx tab made by UG professional guitarists. Check out the tab »
×
28,728 views 57 this week
9 commentsread comments
1 2 3 4 5
x 26
add to favorites
×
Save as Personal and add changes to this tab that will be seen only by you. Learn more ›
×
You can save this tab as Personal to edit and correct it or add notes. All changes will be seen only by you. Learn more »
launch autoscroll
font size
0
reset
guitar tuner
edit
Autoscroll
slow
fast
+/-
esc
set tempo
stop
Author
Unregistered
[Intro]

E|--------------------------------|---------------------------------------------|
B|-----2--------------2-----------|----0------------0---------------------------|
F#------3----0-3-------3-----0-3--|------2---023------2---023-------------------|
B|--2------2-------2------2-------|---2----2-------2----2-----------------------|

E|--------------------------------|----------------------------------------|
B|-----2--------------2-----------|--33333333--2--2------------------------|
F#------3----0-3-------3-----0-3--|----------------------------------------|
B|--2------2-------2------2-------|----------------------------------------|


[Verse 1]

E|--------------------------------|---------------------------------------------|
B|-----2--------------2-----------|----0------------0---------------------------|
F#------3----0-3-------3-----0-3--|------2---023------2---023-------------------|
B|--2------2-------2------2-------|---2----2-------2----2-----------------------|


E|--------------------------------|--------------------------------------------|
B|-----2--------------2-----------|----0---------------------------------------|
F#------3----0-3-------3-----0-3--|------2---023-------------------------------|
B|--2------2-------2------2-------|---2----2-------2---------------------------|


E|--------------------------------|---------------------------------------------|
B|-----2--------------2-----------|----0------------0---------------------------|
F#------3----0-3-------3-----0-3--|------2---023------2---023-------------------|
B|--2------2-------2------2-------|---2----2-------2----2-----------------------|

E|----------------------------------------|
B|3-3-3-3-3-3-3-3--2----------------------|
F#----------------------------------------|
B|----------------------------------------|

E|--------------------------------------------|
B|-------7777--0000---------------------------|
F#------------------7777----------------------|
B|-7777------------------333333335555555------|

E|---------------------------------------------------------|
B|-------7777--0000----------------------------------------|
F#------------------7777-----------------------------------|
B|-7777------------------3333333355555553333333366662------|

E|---------------------------------------------|
B|----0------------0---------------------------|
F#------2---023------2---023-------------------|
B|---2----2-------2----2-----------------------|

E|-------------------------------------|
B|-----2--------------2----------------|
F#------3----0-3-------3-----0-3-------|
B|--2------2-------2------2------2---2-|

E|--------------------------------|---------------------------------------------|
B|-----2--------------2-----------|----0------------0---------------------------|
F#------3----0-3-------3-----0-3--|------2---023------2---023-------------------|
B|--2------2-------2------2-------|---2----2-------2----2-----------------------|

E|----------------------------------------|
B|-33333333332222222----------------------|
F#----------------------------------------|
B|----------------------------------------|

E|--------------------------------------------|
B|-------7777--0000---------------------------|
F#------------------7777----------------------|
B|-7777------------------333333335555555------|

E|-----------------------------|
B|-------7777--0000------------|
F#------------------7777-------|
B|-7777------------------------|

E|---------------------------------------------------------------------------------------|
B|---------------------------------------------------------------------------------------|
F#---------------------------------------------------------------------------------------|
B|-33333333555555533333333333333377777777666666663333333333333333-6-6-6-6-6-6-6-6-7------|

E|--------------------------------------------------------|
B|--------------------------------------------------------|
F#------77-------------------12-11-11----------7-12-------|
B|--7-7-----76-6-77--7910--7----------666-7-10------------|

E|--------------------------------------------------------------------------|
B|--------------------------------------------------------------------------|
F#--------------------------------------------------------------------------|
B|-7-7-7-7-6-6-6-6-9-9-9-9-10-10-10-10--7-7-7-7-6-6-6-6-9---14-12-10-9-7----|

E|---------------------------------------------------------------------|
B|---------------------------------------------------------------------|
F#---------------------------------------------------------------------|
B|-3333333333333333555555555555555566666666666666667777777755555555----| X2

E|--------------------------------------------|
B|-------7777--0000---------------------------|
F#------------------7777----------------------|
B|-7777------------------333333335555555------|

E|-----------------------------|
B|-------7777--0000------------|
F#------------------7777-------|
B|-7777------------------------|

E|-------------------------------------------------------------------------------------|
B|-------------------------------------------------------------------------------------|
F#-------------------------------------------------------------------------------------|
B|-3333333355555553333333333333337777777766666666333333333333333377777777555555--------|

E|-----------------------------------------|
B|-----------------------------------------|
F#-----------------------------------------|
B|-33333333333333337777777755555555--------| X3

E|-----------------------------------------|
B|-----------------------------------------|
F#----------------------------35---35------|
B|-333333333333333377777777-7----5----3----|

            
            
Suggest correction
Creating personal tab
Creating personal tab
You can edit any tab online and save it as your Personal.

You can edit, replace or remove any tab part or add personal notes – all changes will be seen only by you.

Personal tabs can be accessed anytime from any device, even offline.
Learn more »
comments
print report bad tab
9 comments total. Showing first comments.
0 reply
jul3iawi 10 Dec 30, 2013 09:53 AM

What the **** kind of tuning is this. Damn.

0 reply
cn21luvmg22 10 Mar 07, 2014 09:48 AM

cool! I'm yet to try this version of the song. Hope its good!

0 reply
Starless13 10 Aug 02, 2014 12:36 PM

Hey thanks this is a perfect tab!

guest
Wanna post a correction for this tab? Suggest correction