Oops, an error
Loading. Please wait.

Bulls In The Bronx Tab

version 1
version 1

Intro

Whole song

Interactive

17,237 views 63 this week
2 commentsread comments
1 2 3 4 5
excellent!
x 6
add to favorites
launch autoscroll
font size
0
reset
how to read this tab
guitar tuner
Tab Pro tools
  • play this tab
  • loop segment
  • change instrument
  • show fretboard
  • metronome
×
Best way to learn
"Bulls In The Bronx"
Autoscroll
slow
fast
+/-
esc
set tempo
stop
Contributor
Song: Bulls in the Bronx
Artist: Pierce the Veil
Album: Collide with the Sky (2012)
Track: 5

TUNING: DROP B

|---------------| x2
|---------------|
|---------------|
|---------------|
|----/7-3---0-3-|
|-1-------2-----|

|---------------| x2
|---------------|
|---------------|
|---------------|
|----/5-2---0-2-|
|-1-------2-----|
comments
print report bad tab
2 comments total.
0 reply
NarwhalG2G wrote on December 3 2013, 01:45 am, edited at 01:46 am

The song is in drop C sharp/drop D flat instead and goes likeD#|-------------------A#|-------------------F#|------------------- X2C#|-------------------G#|---5---------------C#|-0---8--0--5--8----thenD#|------------------A#|------------------F#|------------------ X2C#|------------------G#|---3--------------C#|-0---7--0--4--7---then you play an octave chord and a chugD#|------------------A#|------------------F#|-8---------------- C#|-x(x8)------------G#|-6------7(x6)-----C#|--------7---------the tab here sounds right but it's in the wrong tuning.

0 reply
NarwhalG2G wrote on December 3 2013, 01:49 am

And of course, UG ****ed that tab up.
Drop C Sharp/Drop D Flat.

D#|-------------------
A#|-------------------
F#|------------------- X2
C#|-------------------
G#|---5---------------
C#|-0---8--0--5--8----

then

D#|------------------
A#|------------------
F#|------------------ X2
C#|------------------
G#|---3--------------
C#|-0---7--0--4--7---

then you play an octave chord and a chug

D#|------------------
A#|------------------
F#|-8----------------
C#|-x(x8)------------
G#|-6------7(x6)-----
C#|--------7---------

I want to post or [tab]
guest
You may want to rate the tab now too:
select rating
Please do not post tabs as comments. Select "correction" instead!