Oops, an error
Loading. Please wait.

Bulls In The Bronx tab

version 3
version 3

Whole song

  • I am using the chords and notes considering the re... Show more
  • Tabbed in Drop C# instead of Drop B. Most of this tab was done by ear.

Interactive

1,255 views 1 this week
no commentswrite comment
1 2 3 4 5
2 more votes to show rating
add to favorites
×
Save as Personal and add changes to this tab that will be seen only by you. Learn more ›
×
You can save this tab as Personal to edit and correct it or add notes. All changes will be seen only by you. Learn more »
launch autoscroll
font size
0
reset
how to read this tab
guitar tuner
edit
Autoscroll
slow
fast
+/-
esc
set tempo
stop
About this tab version
I am using the chords and notes considering the real position on the guitar. Also, I could not find a tab that satisfied me with all the parts of the song together, so I put all the parts (solo and harmony) in only 1 tab. Was this info helpful? Yes No
Bulls In The Bronx – Pierce The Veil

Tunning: Drop C
Capo on 1st fret

OBS: I am  using the chords and notes considering the real position on the guitar. So, for example,
the chord E must be played in the second fret, independently of the capo or the tunning.

Solo:
e|--------------------------------------------| x 2
B|-4----4----8----8----11----11----12----12---|
G|--4----4----6----6----12----12----13----13--|
D|---6----6----8----8-----13----13---13----13-|
A|--------------------------------------------|
E|--------------------------------------------|

e|-11------11-10-9-----9-----12-----12----11---------------|
B|---12--12-------11----11----11------11----12----11-12-14-|
G|-----13----------12----12-----12-----12----13------------|
D|---------------------------------------------------------|
A|---------------------------------------------------------|
E|---------------------------------------------------------|

        | rake |            |  rake |
e|-11--------11---14-13-12------12-----9-----------9------11-16\-|
B|---12---12--------------11--11--11----11----11-12---9-12-------|
G|-----13------------------12-------12----12---------------------|
D|---------------------------------------------------------------|
A|---------------------------------------------------------------|
E|---------------------------------------------------------------|

    5x        5x        5x         5x               
e|-----------------------------------------------/10-9-8---/10-9-------| 
B|-12p11p9----11p9p8----14p12p11----16p14p12---9---------8-------------|
G|---------------------------------------------------------------------|
D|---------------------------------------------------------------------|
A|---------------------------------------------------------------------|
E|---------------------------------------------------------------------|

e|-7-9-7-6-------tr11-tr9-tr7-6-7-|
B|---------9-8-9------------------|
G|--------------------------------|
D|--------------------------------|
A|--------------------------------|
E|--------------------------------|


Intro:

 |  2x         ||  2x         ||  2x         |
e|-----------------------------------------------------------------------|
B|-----------------------------------------------------------------------|
G|-------------------------------------------------9-9-9-9---------------|
D|-------------------------------------------------9-9-9-9---------------|
A|---/6-------------/4-------------/6--------------7-7-7-7-8-8--xxxx--8--|
E|-0----9-0-6-9---0----8-0-5-8---0----9-0-6-9--------------8-8--xxxx--8--|

Verse 1:

|  2x         ||  2x         ||  2x         |
e|---------------------------------------------------|  2x
B|---------------------------------------------------|
G|---------------------------------------------------|
D|---------------------------------------------------|
A|---/6-------------/4-------------/6----------------|
E|-0----9-0-6-9---0----8-0-5-8---0----9-0-6-9--------|

e|---------------------------------------------------|  
B|---------------------------------------------------|
G|---------------------------------------------------|
D|---------------------------------------------------|
A|---*6-------------*4-------------*6----------------|
E|-0----*9-0-6-9---0---*8-0-5-8---0--*9-0-6-9--------|

e|---------------------------------------------------------------|
B|---------------------------------------------------------------|
G|---------------------------------------------------------------|
D|---------------------------------------------------------------|
A|------------------------------------------------0--------------|
E|--1-/13-0-13-0----1-/13-0-13-0----0-/12-0-12-0--0--------------|

Chorus:

Chorus:
e|--------------------------------------------------------------------------|  2x
B|--------------------------------------------------------------------------|
G|---------------------------------9-9-9-9-9-9-9-9-9--111111---8-8-8-8-8----|
D|6-6-6-6--------------------------9-9-9-9-9-9-9-9-9--8-8-8—ou-8-8-8-8-8----|
A|6-6-6-6-9-9-9-9---------6-6-6-6--7-7-7-7-7-7-7-7-7--9-9-9----9-9-9-9-9----|
E|6-6-6-6---------9-9-9-9---------------------------------------------------|
          * * * * * * * * * * * * 

power chords: E   A

Verse 2:

|  2x         ||  2x         |
e|----------------------------------------------------| 
B|----------------------------------------------------|
G|----------------------------------------------------|
D|----------------------------------------------------|
A|---/6-------------/4-------------/6-------------0---|
E|-0----9-0-6-9---0----8-0-5-8---0----9-0-6-9-----0---|

|  2x         ||  2x         |
e|---------------------------------------------------|  
B|---------------------------------------------------|  
G|---------------------------------------------------|
D|---------------------------------------------------|
A|---/6-------------/4-------------------------------|  
E|-0----9-0-6-9---0----8-0-5-8-----------------------|  

Chorus:

e|--------------------------------------------------------------------------|  2x
B|--------------------------------------------------------------------------|
G|---------------------------------9-9-9-9-9-9-9-9-9--1111111111111111------|
D|6-6-6-6--------------------------9-9-9-9-9-9-9-9-9--8-8-8-8-8-8-8-8-------|
A|6-6-6-6-9-9-9-9---------6-6-6-6--7-7-7-7-7-7-7-7-7--9-9-9-9-9-9-9-9-------|
E|6-6-6-6---------9-9-9-9---------------------------------------------------|

G|--------------------------------------------------------------------------|
D|--------------------------------------------------------------------------|
A|2-2-2-2-2-2-2-2--6-6-6-6--4-4-4-4-000--2-2-2-2—--5---5---5---5--—6/-------|
E|2-2-2-2-2-2-2-2--6-6-6-6--4-4-4-4-000--2-2-2-2---5---5---5---5---6/-------|

SOLO

Bridge:
e|--------------------------------------------------------------------------|
B|--------------------------------------------------------------------------|
G|--------------------------------------------------------------------------|
D|9p0-6p0-9p0-6p0-9p0-6p0-9p0-6p0--8p0-5p0-8p0-5p0-8p0-5p0-8p0-5p0----------|
A|--------------------------------------------------------------------------|
E|--------------------------------------------------------------------------|

e|--------------------------------------------------------------------------|
B|--------------------------------------------------------------------------|
G|--------------------------------------------------------------------------|
D|11p0-8p0-11p0-8p0-11p0-8p0-11p0-6p0-9p0-6p0-9p0-6p0-8p0-5p0-8p0-5p0-------|
A|--------------------------------------------------------------------------|
E|--------------------------------------------------------------------------|

E G#

A  A# G#

E G#

e|----------------------------------------------------|
B|----------------------------------------------------|
G|----------------------------------------------------|
D|0-0-0-0-0-0-0--0-0-0-0-0-0-0-0--0-0-0-0-0-0-0-0-----|
A|0-0-0-0-0-0-0--0-0-0-0-0-0-0-0--0-0-0-0-0-0-0-0-----|
E|0-0-0-0-0-0-0--0-0-0-0-0-0-0-0--0-0-0-0-0-0-0-0-----|
  * * * *   * *  * * * *   * * *  * * * * * * * * 

Bridge [Guitar 2}

 | 4x | | 4x | | 4x | | 2x | | 2x | 
e|-7------6------9------7------6-------------------------------------------|
B|--9------8------11-----9------8------------------------------------------|
G|-------------------------------------------------------------------------|

| 4x | | 4x | | 4x | | 2x | | 2x | 
e|-7------6------9------11------9-------------------------------------------|
B|--9------8------11-----12------11-----------------------------------------|
G|--------------------------------------------------------------------------|

| 4x | | 4x | 
e|-7------9------11-----....------------------------------------------|
B|--9------11------12---....------------------------------------------|
G|--------------------------------------------------------------------|

G|-----12-----15----|
D|------x------x----|
A|-----10-----13----|
E|------------------|


Chorus:
e|--------------------------------------------------------------------------|  2x
B|--------------------------------------------------------------------------|
G|---------------------------------9-9-9-9-9-9-9-9-9--1111111111111111------|
D|6-6-6-6--------------------------9-9-9-9-9-9-9-9-9--8-8-8-8-8-8-8-8-------|
A|6-6-6-6-9-9-9-9---------6-6-6-6--7-7-7-7-7-7-7-7-7--9-9-9-9-9-9-9-9-------|
E|6-6-6-6---------9-9-9-9---------------------------------------------------|
          * * * * * * * * * * * *

G|--------------------------------------------------------------------------|
D|--------------------------------------------------------------------------|
A|2-2-2-2-2-2-2-2--6-6-6-6--4-4-4-4-000--2-2-2-2—--5-5-5-5--—4-------|
E|2-2-2-2-2-2-2-2--6-6-6-6--4-4-4-4-000--2-2-2-2---5-5-5-5---4-------|

Outro:

e|--------------------------|  many times
B|--12—11p9-----------------|
G|---------------12h14------|
D|-----------14-------------|
A|--------------------------|


Power chords sequence:

{   E   A# G#    } 4x

Final:

D|66-6-6-66-6-6-66-6-------------2------------------------------------------|
A|66-6-6-66-6-6-66-6---2-4--2-4--2------------------------------------------|
E|66-6-6-66-6-6-66-6--6----4-----2------------------------------------------|
  **     **     **   

Optional:
Finish fingering this chord:

e|-2--------------------|
B|-2--------------------|
G|-4--------------------|
D|-4--------------------|
A|-2--------------------|
E|----------------------|






            
            
Suggest correction
Creating personal tab
Creating personal tab
You can edit any tab online and save it as your Personal.

You can edit, replace or remove any tab part or add personal notes – all changes will be seen only by you.

Personal tabs can be accessed anytime from any device, even offline.
Learn more »
Give kudos to tab author, rate the tab!
1 2 3 4 5
comments
print report bad tab
guest
You may want to rate the tab now too:
select rating
Wanna post a correction for this tab? Suggest correction