Oops, an error
Loading. Please wait.

Bulls In The Bronx Tab

version 4
version 4

Whole song

  • I am using the chords and notes considering the re... Show more
  • Tabbed in Drop C# instead of Drop B. Most of this tab was done by ear.

Interactive

124 views 15 this week
no commentswrite comment
1 2 3 4 5
3 more votes to show rating
add to favorites
launch autoscroll
font size
0
reset
how to read this tab
guitar tuner
Autoscroll
slow
fast
+/-
esc
set tempo
stop
Help us to improve Ultimate-Guitar.com Take our survey!
×
Author
Difficulty
Tuning
intermediate
C# G# C# F# A# D#
About this tab version
Tabbed in Drop C# instead of Drop B. Most of this tab was done by ear. Was this info helpful? Yes No
Tabbed by: PierceTheKnight
Email: tatianna0498@gmail.com
Based off the video tutorial by Mike Gross
Link: https://youtu.be/h0ItkTAlArQ




[Intro]  (Sliding is optional.)

D#|---------------------------------------------------------------------------|
A#|---------------------------------------------------------------------------| 
F#|---------------------------------------------------------------------------|
C#|---------------------------------------------------------------------------|
G#|---/5-------------/5---------------/3--------------/3----------------------|
C#|-0----8-0-5-8---0----8-0-5-8-----0----7-0-4-7---0------7-0-4-7-------------|

D#|-----------------------------------------------------------------------------------|
A#|-----------------------------------------------------------------------------------|
F#|---------------------------------------8-8-8-8-8-8-8-8-----------------------------|
C#|---------------------------------------x-x-x-x-x-x-x-x-----------------------------|
G#|---/5-------------/5-------------------6-6-6-6-6-6-6-6----7-----------------7------|
C#|-0----8-0-5-8---0-----8-0-5-8-----------------------------7--(7-7-7-7-7-7)----7----|
                                                                PM this part  

[Verse]


D#|---------------------------------------------------------------------------|
A#|---------------------------------------------------------------------------| 
F#|---------------------------------------------------------------------------|
C#|---------------------------------------------------------------------------|
G#|---/5-------------/5---------------/3--------------/3----------------------|
C#|-0----8-0-5-8---0----8-0-5-8-----0----7-0-4-7---0------7-0-4-7-------------|


D#|---------------------------------------------------------------------------|
A#|---------------------------------------------------------------------------| 
F#|---------------------------------------------------------------------------|
C#|---------------------------------------------------------------------------|
G#|---/5-------------/5---------------/3--------------/3----------------------|
C#|-0----8-0-5-8---0----8-0-5-8-----0----7-0-4-7---0------7-0-4-7-------------|


D#|---------------------------------------------------------------------------|
A#|---------------------------------------------------------------------------| 
F#|---------------------------------------------------------------------------|
C#|---------------------------------------------------------------------------|
G#|---*5-------------*5---------------*3--------------*3----------------------|
C#|-0---*8-0-5-8---0----*8-0-5-8-----0---*7-0-4-7---0-----*7-0-4-7------------|

                                 (*= pinch harmonic)

D#|---------------------------------------------------------------------------|
A#|---------------------------------------------------------------------------|
F#|---------------------------------------------------------------------------|
C#|---------------------------------------------------------------------------|
G#|---------------------------------------------------0-----------------------|
C#|-1-1/13~-0-13-0---1-1/13~-0-13-0---0h1/12-0-12-0---0-----------------------|
                                     (Don't let the open strings ring out.)

[Chorus]

D#|---------------------------------------------------------------------------|
A#|---------------------------------------------------------------------------|
F#|---------------------------------------------------------------------------|
C#|----------------------------------------8-8-8-8-8-8-8-8---7-7-7-7-7-7-7-8--|   [x2]
G#|--5-5-5-5--8-8-8-8-----------5-5-5-5----6-6-6-6-6-6-6-6---8-8-8-8-8-8-8-8--|
C#|--5-5-5-5-----------8-8-8-8------------------------------------------------|


D#|---------------------------------------------------------------------------|
A#|---------------------------------------------------------------------------|
F#|---------------------------------------------------------------------------|
C#|-1-1-1-1-1-1-1-1/--4-4-4-4-------------------------------------------------|
G#|-1-1-1-1-1-1-1-1/--4-4-4-4-------------------------------------------------|
C#|-1-1-1-1-1-1-1-1/--4-4-4-4-------------------------------------------------|

[Verse]

D#|---------------------------------------------------------------------------|
A#|---------------------------------------------------------------------------| 
F#|---------------------------------------------------------------------------|
C#|---------------------------------------------------------------------------|
G#|---/5-------------/5---------------/3--------------/3----------------------|
C#|-0----8-0-5-8---0----8-0-5-8-----0----7-0-4-7---0------7-0-4-7-------------|

D#|------------------------------|
A#|------------------------------| 
F#|------------------------------|   [Very short pause]
C#|------------------------------|
G#|---/5-------------/5----------|
C#|-0----8-0-5-8---0----8-0-5-8--|


D#|---------------------------------------------------------------------------|
A#|---------------------------------------------------------------------------| 
F#|---------------------------------------------------------------------------|
C#|---------------------------------------------------------------------------|
G#|---/5-------------/5---------------/3--------------/3----------------------|
C#|-0----8-0-5-8---0----8-0-5-8-----0----7-0-4-7---0------7-0-4-7-------------|

[Break/Bass Playing]

[Chorus]

D#|---------------------------------------------------------------------------|
A#|---------------------------------------------------------------------------|
F#|---------------------------------------------------------------------------|
C#|----------------------------------------8-8-8-8-8-8-8-8---7-7-7-7-7-7-7-8--|   [x2]
G#|--5-5-5-5--8-8-8-8-----------5-5-5-5----6-6-6-6-6-6-6-6---8-8-8-8-8-8-8-8--|
C#|--5-5-5-5-----------8-8-8-8------------------------------------------------|


D#|-------------------------------------------------------------------------------|
A#|-------------------------------------------------------------------------------|
F#|-------------------------------------------------------------------------------|
C#|-1----------------------5-----------------4-----------------0------------------|
G#|-1--[Whole-bar-x16]-----5-[Whole-bar-x8]--4-[Whole-bar-x8]--0-[Whole-bar-x3]---|
C#|-1----------------------5-----------------4-----------------0------------------|


D#|-----------------------------------------------------------------------------|
A#|-----------------------------------------------------------------------------|
F#|-----------------------------------------------------------------------------|
C#|-1------------------4------------------5\------------------------------------|
G#|-1-[Whole-bar-x16]--4-[Whole-bar-x16]--5\------------------------------------|
C#|-1------------------4------------------5\------------------------------------|

[Acoustic Interval]

D#|--------------5--5--6--6------------------5--5--6--6---------------|
A#|-3--3--7--7----7--7--8--8---3--3--7--7-----7--7--8--8--------------|
F#|--3--3--5--5----7--7--7--7---3--3--5--5-----7--7--7--7-------------|
C#|---5--5--7--7-----------------5--5--7--7---------------------------|
G#|-------------------------------------------------------------------|
C#|-------------------------------------------------------------------|

D#|-10-----10-9-8-----8------11---11-----10---------------------------|
A#|--11--11-------10----10-----10---10-----11----10-11-13-------------|
F#|----12-----------11----11-----11---11-----12-----------------------|
C#|-------------------------------------------------------------------|
G#|-------------------------------------------------------------------|
C#|-------------------------------------------------------------------|

        
      Sweep Pick                 Sweep Pick
Note:|      |---|           |-------------------------|
D#|-10-----10-13-12-11-------11-------8-----------8-------10/15-------|
A#|--11--11-----------10--10---10------10---10-11------11-------------|
F#|----12---------------11-------11------11----------12---------------|
C#|-------------------------------------------------------------------|
G#|-------------------------------------------------------------------|
C#|-------------------------------------------------------------------|

D#|---------------------|
A#|----11p-10p-8--------|
F#|---------------------|
C#|---------------------| [x5]
G#|---------------------|
C#|---------------------|

D#|---------------------|
A#|----10p-9p-8---------|
F#|---------------------|
C#|---------------------| [x5]
G#|---------------------|
C#|---------------------|

D#|---------------------|
A#|----13p-11p-11-------|
F#|---------------------|
C#|---------------------| [x5]
G#|---------------------|
C#|---------------------|

D#|---------------------|
A#|----15p-13p-12-------|
F#|---------------------|
C#|---------------------| [x5]
G#|---------------------|
C#|---------------------|

D#|----/10-9-8----------|
A#|---------------------|
F#|---------------------|
C#|---------------------| [x2]
G#|---------------------|
C#|---------------------|

D#|----------------------------|
A#|---11-13-11-10--------------|
F#|---------------12-11-12-----|
C#|----------------------------|
G#|----------------------------|
C#|----------------------------|

[Electric Guitar]

(Guitar 1)

D#|-----------------------------------|
A#|-----------------------------------|
F#|-----------------------------------|
C#|---8p0-5p0-8p-5p0-8p0-5p0-8p0-5p0--|
G#|-----------------------------------|
C#|-----------------------------------|

D#|------------------------------------|
A#|------------------------------------|
F#|------------------------------------|
C#|---7p0-4p0-7p0-4p0-7p0-4p0-7p0-4p0--|
G#|------------------------------------|
C#|------------------------------------|

D#|----------------------------------------|
A#|----------------------------------------|
F#|----------------------------------------|
C#|---10p0-7p0-10p0-7p0-10p0-7p0-10p-7p0---|
G#|----------------------------------------|
C#|----------------------------------------|

D#|-------------------------------------|
A#|-------------------------------------|
F#|-------------------------------------|
C#|---8p0-5p0-8p0-5p0-7p0-4p0-7p0-4p0---|
G#|-------------------------------------|
C#|-------------------------------------|

D#|---------------------------------------------------------------------------------------------|
A#|---------------------------------------------------------------------------------------------|
F#|---------------------------------------------------------------------------------------------|
C#|-1------------------3------------------4------------------5----------------4-----------------|
G#|-1-[Whole-bar-x16]--3-[Whole-bar-x16]--4-[Whole-bar-x16]--5-[Whole-bar-x8]-4-[Whole-bar-x8]--|
C#|-1------------------3------------------4------------------5----------------4-----------------|

D#|-------------------------------------------------------------------|
A#|-------------------------------------------------------------------|
F#|(1)----------------(3)---------------------------------------------|
C#|-1------------------3------------------0---------------------------|
G#|-1-[Whole-bar-x16]--3-[Whole-bar-x16]--0-[Repeat-bar-til-Chorus]---|
C#|-1------------------3------------------0---------------------------|

[Chorus]

D#|------------------------------------------------------------------------|
A#|------------------------------------------------------------------------|
F#|------------------------------------------------------------------------|
C#|-----------------------------------8-8-8-8-8-8-8-8--7-7-7-7-7-7-7-7-----| [x2]
G#|-5-5-5-5--8-8-8-8---------5-5-5-5--6-6-6-6-6-6-6-6--8-8-8-8-8-8-8-8-----|
C#|-5-5-5-5----------8-8-8-8-----------------------------------------------|

D#|---------------------------------------------------------------------------|
A#|---------------------------------------------------------------------------|
F#|---------------------------------------------------------------------------|
C#|-1------------------5------------------4----------------0-0-0--------------|
G#|-1-[Whole-bar-x16]--5-[Whole-bar-x8]---4-[Whole-bar-x8]-0-0-0--------------|
C#|-1------------------5------------------4----------------0-0-0--------------|

D#|---------------------------------------------------------------------------|
A#|---------------------------------------------------------------------------|
F#|---------------------------------------------------------------------------|
C#|-1------------------4------------------------------------------------------|
G#|-1-[Whole-bar-x16]--4-[Whole-bar-x16]--------------------------------------|
C#|-1------------------4------------------------------------------------------|

[Outro]

D#|---------------------------------------------------------------------------|
A#|---------------------------------------------------------------------------|
F#|---------------------------------------------------------------------------|
C#|-1------------------5------------------4----------------0-0-0--------------| [x3]
G#|-1-[Whole bar x16]--5-[Whole bar x8]---4-[Whole bar x8]-0-0-0--------------|
C#|-1------------------5------------------4----------------0-0-0--------------|


D#|-----------------------------------------|
A#|-----------------------------------------|
F#|-----------------------------------------|
C#|-1------------------5--------------------|
G#|-1-[Whole-bar-x16]--5-[Whole-bar-x8]-----|
C#|-1------------------5--------------------|

D#|-----------------------|
A#|-----------------------|
F#|-----------------------|
C#|-----------------1-----|
G#|-----1-3---1-3---1-----|
C#|---5-----3-------1-----|

D#|---------1------------|
A#|-------1--------------|
F#|-2--3-----------------| [Play til fade out]
C#|----------------------|
G#|----------------------|
C#|----------------------|


Fin!

************************************
| *   Pinch Harmonic
| x   Dead note
| p   Pull-off
| /   Slide up
| h   Hammer on
| \   Slide down
| ~   Vibrato
| PM  Palm mute
************************************
Suggest correction
Give kudos to tab author, rate the tab!
1 2 3 4 5
comments
print report bad tab
guest
You may want to rate the tab now too:
select rating
Wanna post a correction for this tab? Suggest correction