Oops, an error
Loading. Please wait.

Caraphernelia Tab

version 1
version 1

Acoustic

Whole song

Interactive

59,884 views 27 this week
7 commentsread comments
1 2 3 4 5
x 3
add to favorites
launch autoscroll
font size
0
reset
how to read this tab
guitar tuner
Autoscroll
slow
fast
+/-
esc
set tempo
stop
Author
Difficulty
advanced
** B= Bend ... P/H= Pull off / Hammer On ... PM= Play/Mute ... FP= Finger
Pick ... **

[Intro]
(x6)
e|x-----0--------0--------0--------0--------0----------------------|
B|x-----0--------0--------0--------0--------0----------------------|
G|x-----5--------4--------7--------5--------4----------------------|
D|x-----5--------4--------7--------5--------4----------------------|
A|x-----3--------2--------5--------3--------2----------------------|
E|x-----x--------x--------x--------x--------x----------------------|

[Sunshine...]
e|x--------7--------6--------x--------7--------6--------x--------0--------0-|
B|x--------8--------7--------x--------8--------7--------x--------0--------0-|
G|x--------9--------8--------x--------9--------8--------x--------5--------4-|
D|x--------7--------6--------x--------7--------6--------x--------5--------5-|
A|x--------7--------6--------x--------7--------6--------x--------0--------0-|
E|x--------7--------6--------x--------7--------6--------x--------x--------0-|

[Breathing...]
  B      (x1)B    (x1)B     (x1)B
e|7-------0---------0--------0-------0-------7-------6-------7-------0---------|
B|8-------0---------0--------0-------0-------8-------7-------7-------0---------|
G|9-------14--------13-------12------5-------9-------8-------7-------8---------|
D|7-------0---------0--------0-------5-------7-------6-------9-------6---------|
A|7-------13--------12-------11------3-------7-------6-------9-------8---------|
E|7-------12--------11-------10------x-------7-------6-------7-------x---------|

[What If I Can't...](x2M)
e|7-------0--------0-------0-------7-------0-------0------|
B|8-------0--------0-------0-------8-------0-------0------|
G|9-------7--------5-------5-------9-------7-------5------|
D|9-------7--------5-------5-------9-------7-------5------|
A|7-------0--------0-------0-------7-------0-------0------|
E|7-------x--------x-------x-------7-------x-------x------|

[In this hole...]
      (x1)      (x1PM)
e|---7-----0-------0-|
B|--8-8----9----9--9-|
G|-9---9---8---8---8-|
D|9-----9--7--7----7-|
A|---------0-------0-|
E|---------0-------0-|

[Somebody pray for...]
  (x1)   (B) (x1PM) (x1PM)(1xPM)    (x1)
e|--7--x--0---x---0---x---0---0---x---0---x---7---x---0---x---|
B|--8--x--0---x---0---x---0---0---x---0---x---8---x---0---x---|
G|--9--x--12--x---0---x---0---12--x---12--x---9---x---7---x---|
D|--9--x--0---x---5---x---5---0---x---0---x---9---x---7---x---|
A|--7--x--11--x---7---x---7---11--x---11--x---7---x---0---x---|
E|--7--x--10--x---6---x---6---10--x---10--x---7---x---x---x---|

[Can't forget you...]
             (P/H x2)
e|--7---0---0---0-----7---0---0-----------------------------------------|
B|--8---0---0---0-----8---0---0-----------------------------------------|
G|--9---5---7---7-----9---5---7-----------------------------------------|
D|--9---5---7---7-----9---5---7-----------------------------------------|
A|--7---0---0---0-----7---0---0-----------------------------------------|
E|--7---x---x---x-----7---x---x-----------------------------------------|

[In this hole...]          [Throw, Oh no...]
             (P/H x2)                    (x1)
e|--7---0---0---0-----7---0---0---2---0----9----7---8---6---7---0---0-----|
B|--8---0---0---0-----8---0---0---2---16---9----8---8---6---8---0---0-----|
G|--9---5---7---7-----9---5---7---4---16---11---9---8---6---9---5---4-----|
D|--9---5---7---7-----9---5---7---2---15---9----9---8---6---9---5---5-----|
A|--7---0---0---0-----7---0---0---2---15---9----7---8---6---7---0---0-----|
E|--7---x---x---x-----7---x---x---2---0----9----7---8---6---7---x---x-----|

[In this hole...]
  (1xPM)   (2xPM)         (x2/x2PM)(x1PM)(x1PM)(2x/2xPM)
e|--12---x---0----7---0---0---7-----7------0------0-------7---0---0---7---8-|
B|--12---x---0----8---0---0---8-----8------0------0-------8---0---0---8---8-|
G|--11---x---5----9---7---5---9-----9------7------5-------9---7---5---9---8-|
D|--12---x---5----9---7---5---9-----9------7------5-------9---7---5---9---8-|
A|--12---x---0----7---0---0---7-----7------0------0-------7---0---0---7---8-|
E|--12---x---x----7---x---x---7-----7------x------x-------7---x---0---7---8-|

[What's so good...]
  (2x/2x/1xPM)(1xPM)(2x/2xPM)          (Bunch of PMing)
e|7------------0------0-------7---0---0---7---9--7--9--7--7---7--5----------|
B|8------------0------0-------8---0---0---8---9--7--9--7--8---7--5----------|
G|9------------7------5-------9---7---5---9---9--7--9--7--9---7--5----------|
D|9------------7------5-------9---7---5---9---9--7--9--7--9---7--5----------|
A|7------------0------0-------7---0---0---7---9--7--9--7--7---7--5----------|
E|7------------x------x-------7---x---x---7---9--7--9--7--7---7--5----------|

************************************

| x   Dead note
| PM  Palm mute

************************************
Suggest correction
Give kudos to tab author, rate the tab!
1 2 3 4 5
comments
print report bad tab
7 comments total. Showing first comments.
0 reply
livingend92 63 Nov 11, 2010 04:22 PM

What tuning is this in? Standard, Drop D, etc? decent tab though good shot

0 reply
tbdsonic 63 Nov 14, 2010 10:51 AM

thnks i know i didn't put the lyrics over the right parts EXACTLY so sorry about that, um I wasn't really sure of the tuning... It sounds alright in standard tuning, but I'm sure it could also be in drop-d. Take a look at the video and figure it out for yourself if all else fails.

0 reply
Team Grant. 113 Dec 04, 2010 04:35 PM

Maybe try using Half-Step Down.
They don't normally use standard in Selfish Machines.

guest
You may want to rate the tab now too:
select rating
Wanna post a correction for this tab? Suggest correction