Oops, an error
Loading. Please wait.

Caraphernelia Tab

version 3
version 3

Acoustic

Whole song

Interactive

52,778 views 57 this week
no commentswrite comment
1 2 3 4 5
excellent!
x 17
add to favorites
launch autoscroll
font size
0
reset
how to read this tab
guitar tuner
Autoscroll
slow
fast
+/-
esc
set tempo
stop
Help us to improve Ultimate-Guitar.com Take our survey!
×
Author
-------------------------------------------------------------------------------
                             CARAPHERNELIA (ACOUSTIC) - PIERCE THE VEIL
-------------------------------------------------------------------------------


Tabbed by: mariewong.





Tuning: Standard.



Chords:
    B    Ebm    Bb    Db
e|--7--|--6--|--6--|--9---|
B|--7--|--7--|--6--|--9---|
G|--8--|--8--|--7--|--10--|
D|--9--|--8--|--8--|--11--|
A|--9--|--6--|--8--|--11--|
E|--7--|--6--|--6--|--9---|





[INTRO]

Guitar 1:

e|--7-----------------------------------------------------------------------|
B|--7-----------------------------------------------------------------------|
G|--8-(x16)----8-(x8)----7-(x5)----10-(x3)----8-(x12)----10-(x4)----7-(x9)--|
D|--9----------8---------8---------11---------9----------11---------8-------|
A|--9----------6---------8---------11---------9----------11---------8-------|
E|--7-----------------------------------------------------------------------|

Guitar 2:

B - Ebm - Bb - Db
B - Db - Bb





[VERSE]

Guitar 2:

Ebm                                        Bb
Sunshine, there ain't a thing that you can do that's gonna ruin my night.
But, there's just something about
Ebm                                                 Bb
This dizzy dreamer and her bleeding little blue boy.
Licking your fingers like you're done and
       Db              
You've decided 

Guitar 1:

    Sunshine   do   mind   This   bleeding   blue   Licking   done   decided
e|-----------------------------------------------------------------------|
B|--------------------------------6----------7---------------------------|
G|--8----------7----x------8------7----------8------7---------7------10--|
D|--8----------8----x------8------8----------8------8---------8------11--|
A|--6----------8----x------6------------------------8---------8------11--|
E|-----------------------------------------------------------------------|




Guitar 2:

         B
There is so much more than me.
          Ebm                 
And baby, honestly it's harder 
breathing 

Guitar 1:

e|-----------------------------------|
B|-----------------------------------|
G|--------------6-6-6----------------|
D|--------------------9-9-9-8-8------|   [x3]
A|--6-6-6-6-9-9-----------------9-9--|
E|-----------------------------------|




Guitar 2:

Ebm  Db B   Bb
Next to you I

OR

    next   to   you   I  
e|--6---------------------|
B|--7-------9----7--------|
G|--8------10----8----10--|
D|---------11----9----11--|
A|--------------------11--|
E|------------------------|

Guitar 1:

    next   to   you   I  
e|------------------------|
B|------------------------|
G|--8------6----8-----10--|
D|--8------6----9-----11--|
A|--6------8----9-----11--|
E|------------------------|




Guitar 2:

B
shake.
I brought a gun and as the preacher tried to stop me.
B                  Bb
Hold my heart it's beating for you anyway.

Guitar 1:

e|-------------------------|
B|-------------------------|
G|-------------------------|
D|--8-8-8-6--8--8/9--8--6--|   [x2]
A|-------------------------|
E|-------------------------|

e|-------------------------------|
B|-------------------------------|
G|-------------------------------|
D|--8-8-8-6--8--8/9--8--6--6/8~--|
A|-------------------------------|
E|-------------------------------|





[CHORUS]

All guitars:

Ebm                        Db
What if I can't forget you?
               B
I'll burn your name into my throat.
I'll be the fire that'll catch you.
Ebm                                 Db
What's so good about picking up the pieces?
B                                                Ebm    Bb
None of the colors ever light up anymore in this hole.




Guitar 1:

e|----------6---------------------|
B|--------7---7--------------6/9--|
G|------8-------8----------7------|
D|----8-----------8------8--------|
A|--6-----------------------------|
E|---------------------6----------|

Guitar 2:

e|------------------------------------------------------6--|
B|------------------------------------------------------6--|
G|--8---8---8---8---8---8---8---8------7---7---7---7----7--|
D|----8---8---8---8---8---8---8---8------8---8---8---8--8--|
A|------------------------------------------------------8--|
E|------------------------------------------------------6--|





[VERSE]

All guitars:

                     Ebm
Nobody prays for the heartless.
       Ebm                         Bb
Nobody gives another penny for the selfish.
You're learning how to 




Guitar 2:

Ebm   Db   B   Db   Ebm
Taste what you kill now

OR

    taste  what  you  kill  now
e|-----------------------------|
B|-----------------------------|
G|-----------------------------|
D|--4------3-----1----3-----4--|
A|--6------4-----2----4-----6--|
E|--6------4-----2----4-----6--|

Guitar 1:

    taste  what  you  kill  now
e|-----------------------------|
B|-----------------------------|
G|-----------------------------|
D|-----------------------------|
A|-----------------------------|
E|--6------4-----2----4-----6--|




All guitars:

Ebm                     Ebm
Don't mind me, I'm just reaching for your necklace.
Bb                           Bb
Talking to my mom about this little girl from Texas.





[CHORUS]

All guitars:

Ebm                        Db
What if I can't forget you?
               B
I'll burn your name into my throat.
I'll be the fire that'll catch you.
Ebm                                 Db
What's so good about picking up the pieces?
B                                                Ebm   
None of the colors ever light up anymore in this hole.




Guitar 2:

                          Db
So give her back to me.
           B
You know I can't afford the medicine that feeds what I need.

Guitar 1: 

    hole
e|--6-----------------------------------x-7----x-7--|
B|--7----6/7-6--------------------------x-7----x-7--|
G|--8----------8-6----------------------x-8----x-8--|
D|--8--------------8-6--------9(x10)----x-9----x-9--|
A|--6------------------9-9/11-----------x-9----x-9--|
E|--6-----------------------------------x-7----x-7--|




Guitar 2:

          Ebm                         Db
So, baby, what if I can't forget you?
        B                                   Bb
Collide invisible lips like a shadow on the wall,
And just throw, oh no.

Guitar 1:

    what   Collide   invisible   wall   throw   no
e|--------------------------------------6----------|
B|--7----------------------------6------6-------6--|
G|--8------10--------8-----------7------7-------7--|
D|--8------11--------9-----------8--------------8--|
A|---------11--------9-----------------------------|
E|-------------------------------------------------|




Guitar 2:

                        Ebm   Db  B  Ebm  Db  B
You can't just throw me away.

Guitar 1:

e|--6(x16)---------6-6------------------6(x16)--7--|
B|----------9(x7)------9-9-7-7-------7----------7--|
G|-----------------------------10-10------------8--|
D|----------------------------------------------9--|
A|----------------------------------------------9--|
E|----------------------------------------------7--|




All guitars:

    Ebm                         Db
So, what if I can't forget you?
               B
I'll burn your name into my throat.
I'll be the fire that'll catch you.
Ebm                                 Db
What's so good about picking up the pieces?
B                                                Ebm
None of the colors ever light up anymore in this hole.




Guitar 2:

So give her back to me.
           B
You know I can't afford the medicine that feeds what I need.
          Ebm                         Db
So, baby, what if I can't forget you?
    B
I'd better learn to live alone.
Ebm                                 Db
What's so good about picking up the pieces?
B
What's so good about? What's so good about?
Ebm                                 Db
What's so good about picking up the pieces?
B
Oh.


Guitar 1:

     hole               her
e|--(6)-(6)------------(6)-(6)--------------------------------------|
B|--(7)-(7)------------(7)-(7)--------------------------------------|
G|--(8)-(8)------------(8)-(8)--------------------------------------|
D|--(8)-(8)---4----4---(8)-(8)---4-4-----4----------/8-4-6~--4------|
A|--(6)-(6)-----6~-----(6)-(6)---------------4-6---------------6-6--|
E|--(6)-(6)------------(6)-(6)-------6-6---6------------------------|

e|-------------------------------------------------------------------------------------|
B|-------------------------------------------------------------------------------------|
G|-------------------------------------------------------------------------------------|
D|--6-6-----6-8----4/7-4-----4-----4-4-----4--------4(x4)--6(x4)--8(x4)--11(x4)-11/13--|
A|------6-6--------------6~----6-6-------------4-6-------------------------------------|
E|-------------------------------------6-6---6-----------------------------------------|

e|---------------------------------------------------------|
B|---------------------------------------------------------|
G|------------------------------------------------6--------|
D|--------4-----4-----4--------------4-----4--6-8---8-6-4--|
A|------4---(6)---(6)---4-6--------4---(6)-----------------|
E|--4-6------------------------4-6-------------------------|

e|----------------------------------------------------|
B|----------------------------------------------------|
G|----------------------------------------------------|
D|--------4-----4-----4--------------4-----4-----4----|
A|------4---(6)---(6)---4-6--------4---(6)---(6)---6--|
E|--4-6------------------------4-6--------------------|

e|----------------------------------------------------|
B|----------------------------------------------------|
G|----------------------------------------------------|
D|--------4-----4-----4--------------4-----4-----4-6--|
A|------4---(6)---(6)---4-6--------4---(6)---(6)------|
E|--4-6------------------------4-6--------------------|





************************************

| /   slide up
| \   slide down
| h   hammer-on
| p   pull-off
| ~   vibrato
| +   harmonic
| x   Mute note
| b   Bend
| pb  Pre-bend
| br  Bend release
| pbr Pre-bend release
| brb Bend release bend

************************************
Suggest correction
comments
print report bad tab
guest
You may want to rate the tab now too:
select rating
Wanna post a correction for this tab? Suggest correction