Oops, an error
Loading. Please wait.

Caraphernelia Tab

version 1
version 1

Whole song

Interactive

153,014 views 186 this week
6 commentsread comments
1 2 3 4 5
x 17
add to favorites
launch autoscroll
font size
0
reset
how to read this tab
guitar tuner
Autoscroll
slow
fast
+/-
esc
set tempo
stop
Help us to improve Ultimate-Guitar.com Take our survey!
×
Author
-------------------------------------------------------------------------------
                             Caraphernelia - Pierce the Veil
-------------------------------------------------------------------------------
Tabbed by:Kssmycnvrs


Tuning:Half Step Down

[Intro]

e|----------------------------------------------------------------------------|
B|----------------------------------------------------------------------------|
G|-9~--9~--9~-8~--11~-x-9-x-9-x-9-x-9-x-9-x-9-x-9-x-9-x-11-x-8-x-8-x-8-x-8----|
D|-9~--9~--9~-x~--x~--x-9-x-9-x-9-x-9-x-9-x-9-x-9-x-9-x-11-x-8-x-8-x-8-x-8----|
A|-7~--7~--7~-6~--9~--x-7-x-7-x-7-x-7-x-7-x-7-x-7-x-7-x-9--x-6-x-6-x-6-x-6----|
E|----------------------------------------------------------------------------|

e|----------------------------------------------------------------------------|
B|----------------------------------------------------------------------------|
G|----------------------------------------------------------------------------|
D|-12--10-9-7-9-7-------------------------------------------------------------|
A|-12--10-9-7-9-7-------------------------------------------------------------|
E|-10--8--7-5-7-5-------------------------------------------------------------|


[Verse]

e|----------------------------------------------------------------------------|
B|----------------------------------------------------------------------------|
G|-9--9--7---------------x-99-x-99-x-99-x-99-x-99-x-99-x-99-x-9-xx-77-x-77----|
D|-9--9--9--12-10-9-7-9--x-99-x-99-x-99-x-99-x-99-x-99-x-99-x-9-xx-99-x-99----|
A|-7--7-----12-10-9-7-9--x-77-x-77-x-77-x-77-x-77-x-77-x-77-x-7-xx------------|
E|----------10-8--7-5-7-------------------------------------------------------|


[Pre-Chorus]

e|-------------------------|--------------------------------------------------|
B|-------------------------|--------------------------------------------------|
G|-x-77-x-77-------------7-|5555555555555--77777777777777777-9999999999999-9--|
D|-x-99-x-99-12-10-9-7-9-7-|5555555555555--77777777777777777-9999999999999-9--|
A|-----------12-10-9-7-9-5-|xxxxxxxxxxxxx--55555555555555555-7777777777777-7--|
E|-----------10-8--7-5-7---|5555555555555-------------------------------------|

e|----------------------------------------------------------------------------|
B|----------------------------------------------------------------------------|
G|-14-12-11-55555555555555555555555555--9999999999999999-9--------------------|
D|-x--x--x--55555555555555555555555555--9999999999999999-9--------------------|
A|-12-10-9--xxxxxxxxxxxxxxxxxxxxxxxxxx--7777777777777777-7--------------------|
E|----------55555555555555555555555555----------------------------------------|
            xxxxxxxxxxxxxxxxxxxxxxxxxx  xxxxxxxxxxxxxxxx


[Chorus](x2)

e|----------------------------------------------------------------------------|
B|----------------------------------------------------------------------------|
G|-999999999999-7777-555555555555-5-5-----------------------------------------|
D|-999999999999-7777-555555555555-5-5-----------------------------------------|
A|-777777777777-xxxx-xxxxxxxxxxxx-x-x-----------------------------------------|
E|--------------7777-555555555555-5-5-----------------------------------------|


[Pre-verse/Verse] 2

e|-------------|--------------------------------------------------------------|
B|-------------|--------------------------------------------------------------|
G|-9----7------|-9--------12-11-------9-------12-11--------7-------12-11------|
D|-9----9---12-|-9-12-14-------14-13--9-12-14-------14-13--9-12-14-------14-13|
A|-7--------12-|-7--------------------7---------------------------------------|
E|----------10-|--------------------------------------------------------------|

e|----------------------------------------------------------------------------|
B|----------------------------------------------------------------------------|
G|--------------9-------12-11-------9-------12-11-------7-------12-11---------|
D|-12-10-9-7-9--9-12-14-------14-13-9-12-14-------14-13-9-12-14-------14-13---|
A|-12-10-9-7-9--7-------------------7-----------------------------------------|
E|-10-8--7-5-7----------------------------------------------------------------|

e|----------------------------------------------------------------------------|
B|----------------------------------------------------------------------------|
G|-7-------12-11--------------------------------------------------------------|
D|-9-12-14-------12-14b-------------------------------------------------------|
A|----------------------------------------------------------------------------|
E|----------------------------------------------------------------------------|

Chorus again 4x


[Bridge]

e|-----------------------------|------------------------------------------------|
B|-----------------------------|------------------------------------------------|
G|-16-16-16-16-16-16-16-16-20--|-9---9---7---7----------------------------------|
D|-x--x--x--x--x--x--x--x--x---|-9---9---9---9-or-------------------------------|
A|-14-14-14-14-14-14-14-14-18--|-7---7------------------------------------------|
E|-----------------------------|------------------0-55-0-55-0-5-----------------|
                                ^vics part^       ^tonys part^           
                                 strum it


[Solo]

e|----------------------------------------------------------------------------|
B|----------------------------------------------------------------------------|
G|-4----------------------------------------------------4---------------------|
D|---5---5-----5-5----5-----7h9-5-7-5---7h9-5-7-5-4b------5---5-----5-----5---|
A|-----7---7-7----------5-7-----------7---------------------7---7-7-----------|
E|-----------------7-7------------------------------------------------7-7-----|


e|----------------------------------------------------------------------------|
B|----------------------------------------------------------------------------|
G|----------------------------------------------------------------------------|
D|-----4-4-4-4---------4-4-4-4-7-7-7-7----------------------------------------|
A|-5h7---------7-7-7-7--------------------------------------------------------|
E|----------------------------------------------------------------------------|


[After Solo]

e|----------------------------------------------------------------------------|
B|----------------------------------------------------------------------------|
G|-999999999999--7777--5555555555555555---------------------------------------|
D|-999999999999--7777--5555555555555555-(x2)----------------------------------|
A|-777777777777--xxxx--xxxxxxxxxxxxxxxx---------------------------------------|
E|---------------7777--5555555555555555---------------------------------------|


After solo second part(first time)       (second time)
e|-777777777777--7777-|-5555555555555555-|-------------------------------------|
B|-777777777777--7777-|-5555555555555555-|-------------------------------------|
G|-999999999999--7777-|-5555555555555555-|-------------------------------------|
D|-999999999999-------|------------------|-7h9-5-7-5----99-------[9b]----------|
A|-777777777777-------|------------------|-----------77----77-10---------------|
E|--------------------|------------------|-------------------------------------|

Chorus a couple of times, then outro is (after solo second part) with (first time) only. :) 


************************************

| /   slide up
| \   slide down
| h   hammer-on
| p   pull-off
| ~   vibrato
| +   harmonic
| x   Mute note
| b   Bend
| pb  Pre-bend
| br  Bend release
| pbr Pre-bend release
| brb Bend release bend

************************************
Suggest correction
comments
print report bad tab
6 comments total. Showing first comments.
0 reply
xdays_ive_diedx 570 Aug 21, 2010 11:56 AM

Song is better played in Dropped D. But, I'll tab it in your tuning.

I feel that the chorus chords are actually:

E|-----------------||
B|-8---------------||
G|-9---7-----------||
D|-9---7---7---9---||
A|-7-------7---9---||
E|---------5---7---||

The slight muted single notes between first chorus and 2nd verse are:

E|-----------------------------------------------------||
B|-----8-------8-------8-------8-------7-------7----7--||
G|---9---9---9---9---9---9---9---9---8---8---8---8--8--||
D|-9-------9-------9-------9-------9-------9--------9--||
A|-----------------------------------------------------||
E|-----------------------------------------------------||

0 reply
kssmycnvrs 452 Aug 21, 2010 05:32 PM

i grabbed some chords from a video where vic is playing it acoustic. and yeah the play drop d live

0 reply
xdays_ive_diedx 570 Aug 21, 2010 07:30 PM

His acoustic performance is played differently from how it is played live and on the album. I've seen them play it a few times now. There is a distinct difference between how the two versions are played.

guest
You may want to rate the tab now too:
select rating
Wanna post a correction for this tab? Suggest correction