Oops, an error
Loading. Please wait.

Caraphernelia Acoustic tab

version 6
version 6

Whole song

Interactive

581 views 21 this week
no commentswrite comment
1 2 3 4 5
3 more votes to show rating
add to favorites
×
Save as Personal and add changes to this tab that will be seen only by you. Learn more ›
×
You can save this tab as Personal to edit and correct it or add notes. All changes will be seen only by you. Learn more »
launch autoscroll
font size
0
reset
how to read this tab
guitar tuner
edit
Autoscroll
slow
fast
+/-
esc
set tempo
stop
-------------------------------------------------------------------------------
        "Caraphernelia" by Pierce The Veil(Acoustic cover by Millie Tizzard
-------------------------------------------------------------------------------
E-mail: pieces258888@gmail.com

Tuning: Standart(Capo on 6th fret)

You can see cover here: https://www.youtube.com/watch?v=PugOMftXZp0

                                  INTRO
e|---------------------------------------------------------------------------|
B|---------------------------------------------------------------------------|
G|---------------------------------------------------------------------------|
D|-7/9-9\7-5--12\9-7----7/9-9\7-5--12\9-12~----------------------------------|(A lot of delay)
A|---------------------------------------------------------------------------|
E|---------------------------------------------------------------------------|

                           (Sound at backround)
e|---------------------------------------------------------------------------|
B|-7--7--7--7-----5--5-----3--3--------------3~------------------------------|
G|---7--7--7--7-----4--4-----2--2--------------------------------------------|
D|-------------------------0-----------------0~------------------------------| (x2)
A|----------------3----------------------------------------------------------|
E|-0-------------------------------------------------------------------------|

                                VERSE 1
Sunshine, there ain't a thing that you can...
e|----------------------------------------------------------------------------------|
B|-7--7--7--7-----5--5-----3--3----7--7--7--7-------5--5----3--3---3---3-----5---5--|
G|---7--7--7--7-----4--4-----2--2----7--7--7--7-------4--4----2------2---2-----4---4|
D|-------------------------0--------------------------------0---------------0-------| (x2)
A|----------------3---------------------------------3--------------3----------------|
E|-0-------------------------------0------------------------------------------------|

                                CHORUS
What if I can't forget you...
e|-------------------3-3-----3---------------------3--3----------------------|
B|--7--7----7--7-----3-3-----3----3------------7~--3--3----------------------|
G|--7--7----7--7------------------2------------7~----------------------------|
D|-------0----------------------0---(x2)----0------------0~------------------|
A|----------------0-3-3--0-3--0-------------------3--3--0--------------------|
E|-0--0----0--2-------------------------------0------------------------------|

                               VERSE 2
Nobody prays for the heartless...
e|----------------------------------------------------------------------------------|
B|---7--7----7--7----5--5-----3--3-----7--7--7--7-----5--5----3--3----3-------------|
G|---7--7----7--7----4--4-----2--2-----7--7--7--7-----4--4----2--2----2(x8)---------|
D|----------------0---------0--0--0----------------0---------0--0-0---0-------------| 
A|-----------------3--3----0------------------------3--3----0-----------------------|
E|-0--0--0-0--0-----------------------0--0--0--2------------------------------------|
                                                                      *PM

                                CHORUS
What if I can't forget you...
e|-------------------3-3-----3-------------------------------------------|
B|--7--7----7--7-----3-3-----3----3-------------7--7--7--7-----7-7-------|
G|--7--7----7--7------------------2-------------7--7--7--7-----7-7-------|
D|-------0----------------------0----(х4)---------------------------0~---|
A|----------------0-3-3--0-3--0-----------------------------0-3-3--0-----|
E|-0--0----0--2--------------------------------0--0--0--2----------------|


                               BRIDGE
And you throw me away...
e|----------3~--3-------------------------------------------------------------|
B|--7~--7---3~--3---3~--3-----------------------------------------------------|
G|--7~--7-----------2~--2-----------------------------------------------------|
D|0-------0--------0---0------------------------------------------------------|(x2)
A|---------3---3--0-----------------------------------------------------------|
E|-0---0----------------------------------------------------------------------|

                              CHORUS(end of the song)

                             (Sound at backround) begin in mid of the chorus
e|--------------------------------------------------------------|
B|--------------------------------------------------------------|
G|--------------------------------------------------------------|
D|-12/9-7~------------------------------------------------------|(with a lot of delay)
A|--------------------------------------------------------------|
E|--------------------------------------------------------------|




************************************

| /   slide up
| \   slide down
| h   hammer-on
| p   pull-off
| ~   vibrato
| +   harmonic
| x   Mute note
| b   Bend
| pb  Pre-bend
| br  Bend release
| pbr Pre-bend release
| brb Bend release bend

************************************

            
            
Suggest correction
Creating personal tab
Creating personal tab
You can edit any tab online and save it as your Personal.

You can edit, replace or remove any tab part or add personal notes – all changes will be seen only by you.

Personal tabs can be accessed anytime from any device, even offline.
Learn more »
Give kudos to tab author, rate the tab!
1 2 3 4 5
comments
print report bad tab
guest
You may want to rate the tab now too:
select rating
Wanna post a correction for this tab? Suggest correction