Oops, an error
Loading. Please wait.

Caraphernelia tab

version 7
version 7

Whole song

Interactive

1,502 views 15 this week
1 commentread comment
1 2 3 4 5
x 4
add to favorites
×
Save as Personal and add changes to this tab that will be seen only by you. Learn more ›
×
You can save this tab as Personal to edit and correct it or add notes. All changes will be seen only by you. Learn more »
launch autoscroll
font size
0
reset
how to read this tab
guitar tuner
edit
Autoscroll
slow
fast
+/-
esc
set tempo
stop
-------------------------------------------------------------------------------
                             Caraphernelia - Pierce the Veil
-------------------------------------------------------------------------------
Tabbed by: Katelyn

Tuning: Half-Step Down
D# G# C# F# A# D#
                            . .           . .       . . 
e|----------------------------------------------------------------------------------------------------------|
B|-5---5---------------------------------------------------------13-15-17-12-13-15-10-12-13-8-10-12-----8-10|
G|-4------5----9---8/11---------9-------------11--------8-------------------------------------------9-11----|
D|-2-----------x---x-x--------------------------------------------------------------------------------------|
A|-3-----------7---6/9------7-7---(x7)----7-7-------6-6---(x4)----------------------------------------------|
E|----------------------------------------------------------------------------------------------------------|

e|----------------------------------------------------------------------------------------------------------|
B|----------------------------------------------------------------------------------------------------------|
G|-9---12---9---12---9---12---9----12---9----12---9---12------------------------------9------------8--------|
D|---9----9---9----9----9---9---9-----9---9-----9----9---9--------------------------------------------------|
A|------------------------------------------------------------9---7---5/7---9-----7-7--(x7)----6-6----(x4)--|
E|------------------------------------------------------------7---5---3/5---7-------------------------------|

e|----------------------------------------------------------------------------------------------------------|
B|-13-15-17-12-13-15-10-12-13-8-10-12-----8-10-----5-5-5-5---5--7----5----4----5-5-5-5---5--7----5----4-----|
G|------------------------------------9-11---------5-5-5-3---5--x----x----x----5-5-5-5---5--x----x----x-----|
D|-------------------------------------------------3-3-3-3---3--5----3----2----3-3-3-3---3--5----3----2-----|
A|----------------------------------------------------------------------------------------------------------|
E|----------------------------------------------------------------------------------------------------------|

e|-----------------------------------------15-12------------------------------------------------------------|
B|-10-12-10---------10-12-10---------10-12-------10-12-10---------10-12-------------------------------------|
G|----------12-9-12----------12-9-12----------------------12-9-12-------------------------------------------|
D|-------------------------------------------------------------------------9----7----9/10----9----7--(x3)---|
A|----------------------------------------------------------------------------------------------------------|
E|----------------------------------------------------------------------------------------------------------|

e|----------------------------------------------------------------------------------------------------------|
B|----------------------------------------------------------------------------------------------------------|
G|------------------------9------9-9-9-9-7-7-7-7---5-------5---5----9------9-9-9-9-7-7-7-7---5--------------|
D|-9/10\9/10\9/10\9/10----9-(x8)-9-9-9-9-7-7-7-7---5-(x12)-5---5----9-(x8)-9-9-9-9-7-7-7-7---5-(x16)--------|
A|------------------------7------7-7-7-7-5-5-5-5---3-------3---3----7------7-7-7-7-5-5-5-5---3--------------|
E|----------------------------------------------------------------------------------------------------------|

e|----------------------------------------------------------------------------------------------------------|
B|----------------------------------------------------------13-15-17-12-13-15-10-12-13-8-10-12------8-10----|
G|-9---11---12---14---12---11--9---11---8---10---11---10---------------------------------------9-11---------|
D|---9----9----9----9----9---9---9----9---8----8----8----8--------------------------------------------------|
A|----------------------------------------------------------------------------------------------------------|
E|----------------------------------------------------------------------------------------------------------|

e|----------------------------------------------------------------------------------------------------------|
B|----------------------------------------------------------------------------------------------------------|
G|-9\-------12-11-----------8\-------12-11---------------------9\-------12-11-----------8\-------12-11------|
D|-9\--12-14-----14-13-(x2)-8\--12-14-----14-13----------------9\--12-14-----14-13-(x2)-8\--12-14-----14-13-|
A|-7\-----------------------6\-------------------9--7--5/7--9--7\-----------------------6\------------------|
E|-----------------------------------------------7--5--3/5--7-----------------------------------------------|

e|----------------------------------------------------------------------------------------------------------|
B|----------------------------------------------------------------------------------------------------------|
G|-8\-------12-11--------9------9-9-9-9-7-7-7-7---5-------5---5----9------9-9-9-9-7-7-7-7---5---------9-----|
D|-8\--12-14-----12-14---9-(x8)-9-9-9-9-7-7-7-7---5-(x12)-5---5----9-(x8)-9-9-9-9-7-7-7-7---5-(x16)---9-(x8)|
A|-6\--------------------7------7-7-7-7-5-5-5-5---3-------3---3----7------7-7-7-7-5-5-5-5---3---------7-----|
E|----------------------------------------------------------------------------------------------------------|

e|----------------------------------------------------------------------------------------------------------|
B|----------------------------------------------------------------------------------------------------------|
G|-9-9-9-9-7-7-7-7---5-------5---5----9------9-9-9-9-7-7-7-7--5--------16-----20----------------------------|
D|-9-9-9-9-7-7-7-7---5-(x12)-5---5----9-(x8)-9-9-9-9-7-7-7-7--5-(x16)--x-(x8)-x-----------------------------|
A|-7-7-7-7-5-5-5-5---3-------3---3----7------7-7-7-7-5-5-5-5--3--------14-----18-------b-----b--------------|
E|---------------------------------------------------------------------------------0-6-6-0-6-6-0-6----------|

e|----------------------------------------------------------------------------------------------------------|
B|----------------------------------------------------------------------------------------------------------|
G|----------------------------------------------------4-----------------------------------------------------|
D|---------------+--------------------------------------5-----5------5-5--------------+---7/9--5-7---5------|
A|-----b-----b---5-----b-----b----------b-----b---b-------7-----7-7------7-7--x-x--5--7----------------7----|
E|-0-6-6-0-6-6-0---0-6-6-0-6-6-0-6--0-6-6-0-6-6-0-6---------------------------------------------------------|

e|----------------------------------------------------------------------------------------------------------|
B|----------------------------------------------------------------------------------------------------------|
G|-----------------------------------------------------------4----------------------------------------------|
D|-7/9--5--7---5------7/9--5--7---5-----7/9--5--7---5-----------5-------5-----5-5------5--------------------|
A|----------------7-----------------7-----------------7------------7------7-7-------------x-x--5-7----------|
E|---------------------------------------------------------0----------------------7-7-----------------------|

e|----------------------------------------------------------------------------------------------------------|
B|----------------------------------------------------------------------------------------------------------|
G|-----------------------9--9-9--9--9--9-9-9-9--9--9-9----9--9-9--9-9-7-7-7-7----5--5-5--5--5--5-5-5-5------|
D|-4-4-4-4---------(x2)--9--9-9--9--9--9-9-9-9--9--9-9----9--9-9--9-9-7-7-7-7----5--5-5--5--5--5-5-5-5------|
A|---------7-7-7-7-------7--7-7--7--7--7-7-7-7--7--7-7----7--7-7--7-7-5-5-5-5----3--3-3--3--3--3-3-3-3------|
E|----------------------------------------------------------------------------------------------------------|

e|----------------------------------------------------------------------------------------------------------|
B|----------------------------------------------------------------------------------------------------------|
G|-5--5-5--5--5-5--5--5--7--7--7--7-----9--9-9--9--9--9-9-9-9--9--9-9----9--9-9--9--9--7--7--7--7-----5-----|
D|-5--5-5--5--5-5--5--5--7--7--7--7-----9--9-9--9--9--9-9-9-9--9--9-9----9--9-9--9--9--7--7--7--7-----5-----|
A|-3--3-3--3--3-3--3--3--5--5--5--5-----7--7-7--7--7--7-7-7-7--7--7-7----7--7-7--7--7--5--5--5--5-----3-----|
E|----------------------------------------------------------------------------------------------------------|
       . . . . . . . . . . . . . .    . . . . . . . . . .              . . . . . . . . . . . . . . . .
e|----------------------------------------------------------------------------------------------------------|
B|----------------------------------------------------------------------------------------------------------|
G|------------------------------------------------------------7\4-------------------------------------------|
D|-----------------5-----5----------------------------5---5/7-----7\5------------------5-----5--------------|
A|---------5-7-0-0---0-0---0-0-5-7------------5-7-0-0---0---------------------5-7-0-0---0-0---0-0-5-7--(x2)-|
E|-----0-5----------------------------0-0-0-5--------------------------0-0-0-5------------------------------|

e|----------------------------------------------------------------------------------------------------------|
B|----------------------------------------------------------------------------------------------------------|
G|-------------------------------------------+------7----5---------5--5---9-------7------5------------------|
D|-----7/9--5--7----5--------9--9------------9------x----5-(x12)---5--5---9-(x12)-7-(x4)-5-(x16)------------|
A|---------------------7--7--------7--7--10---------7----3---------3--3---7-------5------3------------------|
E|----------------------------------------------------------------------------------------------------------|

e|----------------------------------------------------------------------------------------------------------|
B|----------------------------------------------------------------------------------------------------------|
G|-----4----------------------------------------------------------------------------------------------------|
D|--------5-------5---------5--5-------5----------+---7/9--5--7----5------7/9--5--7----5--------------------|
A|-----------7-------7--7-----------------x-x--5--7-------------------7-------------------7-----------------|
E|--------------------------------7--7----------------------------------------------------------------------|

e|----------------------------------------------------------------------------------------------------------|
B|----------------------------------------------------------------------------------------------------------|
G|---4-----------------------------------------4------------------------------------------------------------|
D|------5-------5-------7/9--5--7-----5-----------5-------5--------5--5--------5----------------------------|
A|---------7-------7---------------------7-----------7-------7--7-----------------x-x---5--7----------------|
E|-0-----------------------------------------0---------------------------7--7-------------------------------|
                                                     ~      b   b   b   b   br               br
e|-------------------------------------------------------------------------------0--3--5--5--5----3----0----|
B|---------------------------------------------------17-----15--15--15--15--15------------------------------|
G|----------------------------------------------9-----------------------------------------------------------|
D|-----7/9--5--7-----5---------9--9-------------------------------------------------------------------------|
A|----------------------7--7---------7--7--10---------------------------------------------------------------|
E|----------------------------------------------------------------------------------------------------------|
***********************************

| /   slide up
| \   slide down
| h   hammer-on
| p   pull-off
| ~   vibrato
| +   harmonic
| x   Mute note
| b   Bend
| pb  Pre-bend
| br  Bend release
| pbr Pre-bend release
| brb Bend release bend
| .   palm mute 

************************************

            
            
Suggest correction
Creating personal tab
Creating personal tab
You can edit any tab online and save it as your Personal.

You can edit, replace or remove any tab part or add personal notes – all changes will be seen only by you.

Personal tabs can be accessed anytime from any device, even offline.
Learn more »
comments
print report bad tab
1 comment total.
0 reply
matt581 10 Aug 07, 2017 03:39 AM

Perfect!! Maybe spread it out a bit more, maybe by verse/chorus etc. other than that it's spot on!

guest
Wanna post a correction for this tab? Suggest correction