Oops, an error
Loading. Please wait.

Caraphernelia tab

version 8
version 8

Whole song

Interactive

157 views 3 this week
no commentswrite comment
1 2 3 4 5
1 last vote to show rating
add to favorites
×
Save as Personal and add changes to this tab that will be seen only by you. Learn more ›
×
You can save this tab as Personal to edit and correct it or add notes. All changes will be seen only by you. Learn more »
launch autoscroll
font size
0
reset
how to read this tab
guitar tuner
edit
Autoscroll
slow
fast
+/-
esc
set tempo
stop
About this tab version
Multiple parts incorporated in the chorus. Included much of the rhythm and lead guitar. Was this info helpful? Yes No
Tabbed by: PierceTheKnight
Email: tatianna0498@gmail.com

[Intro]

D#|-0--0------|---------------|-0--0------------|
A#|-0--0------|-/9---8--/11---|-0--0------------|
F#|-5-----5---|--x---x---x----|-5-----5-----4---|
C#|-5---------|-/7---6--/9----|-5-----------4---|
G#|-3---------|---------------|-3-----------2---|
D#|-----------|---------------|-----------------|

D#|----------------------------------------------|
A#|-0-15-17-0-13-16-0-12-13-0-10-12-0-4-5-7-5\---|
F#|----------------------------------------------|
C#|----------------------------------------------|
G#|----------------------------------------------|
D#|----------------------------------------------|

[Verse]

"Sunshine,there ain't a thing that you can do that's gonna ruin my night..."

D#|---------|
A#|---------|
F#|-12------|
C#|-----9---| [x12]
G#|---------|
D#|---------|

^ PM above ^

D#|---------------------|
A#|---------------------|
F#|---------------------|
C#|-9---7---5---7---9---|
G#|-9---7---5---7---9---|
D#|-7---5---3---5---7---|

D#|----------------|----------------|
A#|----------------|----------------|
F#|-----9----------|-----8----------|
C#|---------[x8]---|---------[x4]---| 
G#|-7-7------------|-6-6------------|
D#|----------------|----------------|


D#|----------------------------------------------|
A#|-0-15-17-0-13-16-0-12-13-0-10-12-0-4-5-7-5\---|
F#|----------------------------------------------|
C#|----------------------------------------------|
G#|----------------------------------------------|
D#|----------------------------------------------|

D#|-------------------------|-----------------|
A#|-------------------------|-----------------|
F#|-------------------------|-9--11--12--14---|
C#|------12-10-9------------|-x--x---x---x----|
G#|-7-10---------10--[x3]---|-7--9---10--12---|
D#|-------------------------|-----------------|

[Pre-Chorus]

(Vic plays:)
 PM-----------------------------------------------------------------------|
D#|---------------------------------------------------------------------------|
A#|---------------------------------------------------------------------------|
F#|---------------------------------------------------------------------------|
C#|-7-7-7-7-7-7-7-7-7-7-7-7-7-7-7-7-9-9-9-9-9-9-9-9-9-9-9-9-9-9-9-9-9-9-9-9---|
G#|-7-7-7-7-7-7-7-7-7-7-7-7-7-7-7-7-9-9-9-9-9-9-9-9-9-9-9-9-9-9-9-9-9-9-9-9---|
D#|-5-5-5-5-5-5-5-5-5-5-5-5-5-5-5-5-7-7-7-7-7-7-7-7-7-7-7-7-7-7-7-7-7-7-7-7---|

(Tony plays:)

D#|------------------------|--------------------|
A#|------------------------|--------------------|
F#|------------------------|--------------------|
C#|-9-7-9-10-9-7----[x3]---|-9h10p9h10p9h10p9---|
G#|------------------------|--------------------|
D#|------------------------|--------------------|

[Vic's Chorus played]

D#|------------|-----------|------------|
A#|------------|-----------|------------|
F#|-9----------|-7---------|-5----------|
C#|-9--[x12]---|-7--[x4]---|-5--[x14]---| [x2]
G#|-7----------|-x---------|-x----------|
D#|------------|-7---------|-5----------|

[Tony's Chorus played]

D#|-------------|------------|------------|
A#|-------------|------------|------------|
F#|-12----------|-11---------|-9----------|
C#|-12--[x12]---|-11--[x4]---|-9--[x14]---| [x2]
G#|-10----------|-9----------|-7----------|
D#|-------------|------------|------------|

[Overlapped guitar in Chorus]

D#|-------------|--------------|-5-5-5-5-5-5-5-5-7-7-7-7-7-7-5-5---|
A#|-9-----------|-7------------|-5-5-5-5-5-5-5-5-5-5-5-5-5-5-5-5---|
F#|--9---[x6]---|---7---[x4]---|-5-5-5-5-5-5-5-5-5-5-5-5-5-5-5-5---|
C#|-------------|--------------|-----------------------------------|
G#|-------------|--------------|-----------------------------------|
D#|-------------|--------------|-----------------------------------|

[Verse]


  PM---------------------|
D#|----------------------|
A#|----------------------|
F#|-9---11---12---11-----|
C#|---9----9----9----9---| [x3]
G#|----------------------|
D#|----------------------|


D#|----------------------------------------------|
A#|-0-15-17-0-13-16-0-12-13-0-10-12-0-4-5-7-5\---|
F#|----------------------------------------------|
C#|----------------------------------------------|
G#|----------------------------------------------|
D#|----------------------------------------------|

D#|----------------|------|-----------------|------|
A#|------8-7-------|------|------8-7--------|------|
F#|-7h9------9-8---|-9\---|-7h9-------9-8---|-8\---|
C#|----------------|-9\---|-----------------|-8\---|
G#|----------------|-7\---|-----------------|-6\---|
D#|----------------|------|-----------------|------|

D#|------------------|---------|----------------|
A#|------8-7---------|---------|------8-7-------|
F#|-7h9--------9-8---|---------|-7h9------7-9---|
C#|------------------|-9---7---|----------------|
G#|------------------|-9---7---|----------------|
D#|------------------|-7---5---|----------------|

D#|------|---------------|------|----------------|
A#|------|-----8-7-------|------|------8-7-------|
F#|-9\---|-7h9-----9-8---|-9\---|-7h9------9-8---|
C#|-9\---|---------------|-9\---|----------------|
G#|-7\---|---------------|-7\---|----------------|
D#|------|---------------|------|----------------|

D#|------|---------------|------|----------------|
A#|------|-----8-7-------|------|------8-7-------|
F#|-8\---|-7h9-----9-8---|-8\---|-7h9------7-9---|
C#|-8\---|---------------|-8\---|----------------|
G#|-6\---|---------------|-6\---|----------------|
D#|------|---------------|------|----------------|


[Chorus] (x4)

[Vic's Chorus played]

D#|------------|-----------|------------|
A#|------------|-----------|------------|
F#|-9----------|-7---------|-5----------|
C#|-9--[x12]---|-7--[x4]---|-5--[x14]---| [x4]
G#|-7----------|-x---------|-x----------|
D#|------------|-7---------|-5----------|

[or Tony's Chorus played]

D#|-------------|------------|------------|
A#|-------------|------------|------------|
F#|-12----------|-11---------|-9----------|
C#|-12--[x12]---|-11--[x4]---|-9--[x14]---| [x4]
G#|-10----------|-9----------|-7----------|
D#|-------------|------------|------------|

[Overlapped guitar in Chorus]

D#|-------------|--------------|-5-5-5-5-5-5-5-5-7-7-7-7-7-7-5-5---|
A#|-9-----------|-7------------|-5-5-5-5-5-5-5-5-5-5-5-5-5-5-5-5---|
F#|--9---[x6]---|---7---[x4]---|-5-5-5-5-5-5-5-5-5-5-5-5-5-5-5-5---|
C#|-------------|--------------|-----------------------------------|
G#|-------------|--------------|-----------------------------------|
D#|-------------|--------------|-----------------------------------|

[Bridge]

D#|---------------------------------------------|
A#|---------------------------------------------|
F#|---------------------------------------------|
C#|---------------------------------------------|
G#|---------------------------------------------|
D#|-0-6-6-0-6-6-0-6-0-6-6-0-6-6-0-6-0-6-6-0-6---|

[Solo]

D#|------------------------------------------------|----------------------------------|
A#|------------------------------------------------|----------------------------------|
F#|-4----------------------------------------------|-4--------------------------------|
C#|---5----5-----5---5------7h9\5/7\5----7h9\5/7---|---5----5-----5-5-----5-5---------|
G#|-----7----7-7-------5/7------------7------------|-----7----7-7---------------5h7---|
D#|----------------7-------------------------------|------------------7-7-------------|

D#|------------------------------------------|
A#|------------------------------------------|
F#|------------------------------------------|
C#|-4-4-4-4----------4-4-4-4---7-7-7-7---5---|
G#|----------7-7-7-7-------------------------|
D#|------------------------------------------|


[After Solo/Chorus/Acoustic] (Play kinda slowly)

D#|-----------------------|-----------|-----------------------------------------|
A#|-----------------------|-----------|-----------------------------------------|
F#|-9-9-9-9-9-9-9-9-9-9---|-7-7-7-7---|-5-5-5-5-5-5-5-5-5-5-5-5-5-5-5-5---------|
C#|-9-9-9-9-9-9-9-9-9-9---|-7-7-7-7---|-5-5-5-5-5-5-5-5-5-5-5-5-5-5-5-5---------| [x2]
G#|-7-7-7-7-7-7-7-7-7-7---|-5-5-5-5---|-3-3-3-3-3-3-3-3-3-3-3-3-3-3-3-3---------|
D#|-----------------------|-----------|-----------------------------------------|

[Riff]

D#|----------------------------------|
A#|----------------------------------|
F#|----------------------------------|
C#|-7/9--5-7-5-----9-9-----------9---|
G#|------------7-7-----7-7-10-10-----|
D#|----------------------------------|

[Chorus]

Start strumming right before Jeremy says: "I'll burn your name into my throat..."

[Vic's Chorus]

D#|-----------|-----------------------------------------------|
A#|-----------|-----------------------------------------------|
F#|-7-7-7-7---|-5-5-5-5-5-5-5-5-5-5-5-5-5-5-5-5-5-5-5-5-5-5---|
C#|-7-7-7-7---|-5-5-5-5-5-5-5-5-5-5-5-5-5-5-5-5-5-5-5-5-5-5---|
G#|-x-x-x-x---|-x-x-x-x-x-x-x-x-x-x-x-x-x-x-x-x-x-x-x-x-x-x---|
D#|-7-7-7-7---|-5-5-5-5-5-5-5-5-5-5-5-5-5-5-5-5-5-5-5-5-5-5---|

[Tony's Chorus}

D#|--------------|-----------------------------------------------|
A#|--------------|-----------------------------------------------|
F#|-11-11-11-11--|-9-9-9-9-9-9-9-9-9-9-9-9-9-9-9-9-9-9-9-9-9-9---|
C#|-11-11-11-11--|-9-9-9-9-9-9-9-9-9-9-9-9-9-9-9-9-9-9-9-9-9-9---|
G#|-9---9--9--9--|-7-7-7-7-7-7-7-7-7-7-7-7-7-7-7-7-7-7-7-7-7-7---|
D#|--------------|-----------------------------------------------|

[Overlapped guitar]

D#|-------------------|-5-5-5-5-5-5-5-5-5-5-7-7-7-7-7-5-5-5-5---|
A#|-7---7---7---7-----|-5-5-5-5-5-5-5-5-5-5-5-5-5-5-5-5-5-5-5---|
F#|---7---7---7---7---|-5-5-5-5-5-5-5-5-5-5-5-5-5-5-5-5-5-5-5---|
C#|-------------------|-----------------------------------------|
G#|-------------------|-----------------------------------------|
D#|-------------------|-----------------------------------------|

[Vic's Solo/Outro]

D#|----------------------------------------------------|----------------------------------|
A#|----------------------------------------------------|----------------------------------|
F#|-4--------------------------------------------------|-4--------------------------------|
C#|---5----5-----5---5------7h9\5/7\5----9-9-------9---|---5----5-----5-5-----5-5---------|
G#|-----7----7-7-------5/7------------7------7-7-10----|-----7----7-7---------------5h7---|
D#|----------------7-----------------------------------|------------------7-7-------------|

D#|------------------------------------------------|
A#|--15^--15^--15^--15^--15b(r)--------------------|
F#|------------------------------------------------|
C#|------------------------------------------------|
G#|------------------------------------------------|
D#|------------------------------------------------|


************************************

| x   Dead note
| h   Hammer-on
| p   Pull-off
| /   Slide up
| \   Slide down
| ~   Vibrato
| PM  Palm mute

************************************

            
            
Suggest correction
Creating personal tab
Creating personal tab
You can edit any tab online and save it as your Personal.

You can edit, replace or remove any tab part or add personal notes – all changes will be seen only by you.

Personal tabs can be accessed anytime from any device, even offline.
Learn more »
Give kudos to tab author, rate the tab!
1 2 3 4 5
comments
print report bad tab
guest
You may want to rate the tab now too:
select rating
Wanna post a correction for this tab? Suggest correction