Oops, an error
Loading. Please wait.

Chemical Kids And Mechanical Brides Bass Tab

4,320 views 1 this week
no commentswrite comment
1 2 3 4 5
please rate
add to favorites
launch autoscroll
font size
0
reset
guitar tuner
Autoscroll
slow
fast
+/-
esc
set tempo
stop
Help us to improve Ultimate-Guitar.com Take our survey!
×
Author
Difficulty
Tuning
advanced
D# G# C# F# A# D#
Chemical Kids & Mechanical Brides - Pierce The Veil
A Flair for the Dramatic
Half Step Down Tune (D#,G#,C#,F#)
*any questions? email me; shepherds.pie@hotmail.com*

(0:28)
|--------------------------------------------|
|--------------------------------------------|    
|--------------------------------------------|    (x2)
|-7-77-5h7---7-77-5h7---3-33-2h3---3-33-2h3--|

(0:49)
|----------------------------------------------------|
|----------------------------------------------------|
|----------------------------------------------------|
|-777777777777777--777777777777777--777777777777777--|

(0:56)
|-11---9----7----------|
|---7h9--7h9--10h11-8--|
|----------------------|
|----------------------|
****OR****
|-11---9----7-5h6-3--|
|---7h9--7h9---------|
|--------------------|
|--------------------|

(0:59)
|-----------------------------------------------------|
|-----------------------------------------------5-----|
|---------------------------------------------5---5---|
|-7-777-5h7--7-777-5h7--7-777-5h7--7-7-5-5--3-------3-|

(1:08)
|--------------------------------------------------------------------------------|
|--------------------------------------------------------------9-9---9p7---------|
|-----------------2-0--5------------9~------------5---5/7-----9----------9p7\5---|
|-6-7--5h7-7----2-----3--3--3----/7-----7--7-5-3----3-----5-7-----------------7--|

(1:33)
|--------------------------------------------------------------------|
|--------------------------------------------------------------------|
|--------------/9p7------------------4-----------------7h9-----------|
|-3-33---3x-3x------7-77---7x-7x--5h7----3-33---3x-3x------7-77-7----|

(1:51)
|-----------------------------------|
|-----------------------------------|
|----------9-/-13-14-/-16-17b-\-----|
|-7-/-9-10--------------------------|

(2:13)
|-----------------------------------------|
|-----------------------------------------|
|-----------------------------------------|
|-/12\3/12\3/12\3/12\3/7\2/7\2/10\2/7\2---|

(2:28)
|-----------------------------------------------------|
|-----------------------------------------------------|
|-----------------------------------------------------|
|-/12\3/12\3/12\3/12\3/7\2/7\2/10\2/7\2/-12-12-12-12--|

(2:46)
|-------------------------------------------------------------------------|
|-------------------------------------------------------11-12-/16---------|
|-----------------------------------------14-14-14--12--------------------|
|-12--12-12-12--10-10-10-9-9-9-7-7-7-7--------------------------------7~--|


TECHNIQUES
h = hammer on
p = pull of
b = bend
/ = slide up the neck ---->
\ = slide down the neck <----
~ = ring

c: rock on guys! 
shepherdspie. 
Suggest correction
What's this?
You can suggest a correction to this tab. Community and Mods will review your correction and vote to approve or reject it.
comments
We did not receive enough feedback on this tab! Please rate:
print report bad tab
1 2 3 4 5
guest
You may want to rate the tab now too:
select rating
Please do not post tabs as comments. Select "correction" instead!