Oops, an error
Loading. Please wait.

Chemical Kids And Mechanical Brides Tab

version 2
version 2

Intro

Whole song

3,058 views 3 this week
no commentswrite comment
1 2 3 4 5
please rate
add to favorites
launch autoscroll
font size
0
reset
how to read this tab
guitar tuner
Autoscroll
slow
fast
+/-
esc
set tempo
stop
Help us to improve Ultimate-Guitar.com Take our survey!
×
Author
guitar 1
 this part is palm muted..but it sounds better if you hold the metal part of the 
frets..and just keep doing that until he sings "told you why I 
need no need for the sun"

e|-8--8-8--8-8-8-------------------|
B|-10-1010-101010------------------|
G|---------------------------------|
D|---------------------------------|
A|---------------------------------|
E|---------------------------------|

guitar 2
e|---------------5-----------------|
B|-------6-------------------------|
G|----8----------------------------|
D|--8------------------------------| X2
A|---------------------------------|
E|---------------------------------|

e|---------------------------------|
B|-----6---------------------------|
G|--8------------------------------|
D|----------------8----------------|
A|--8------------------------------|
E|---------------------------------|

guitar 2
i couldn't really get this part but something like this i guess
e|---------------------------------|
B|---------------------------------|
G|---10p7-10p7-9p7-9p7-------------|
D|-8-------------------------------|
A|---------------------------------|
E|---------------------------------|
Suggest correction
Give kudos to tab author, rate the tab!
1 2 3 4 5
comments
print report bad tab
guest
You may want to rate the tab now too:
select rating
Please do not post tabs as comments. Select "correction" instead!