Oops, an error
Loading. Please wait.

Chemical Kids And Mechanical Brides Tab

version 1
version 1

Intro

Solo

Whole song

1,258 views 6 this week
1 commentread comment
1 2 3 4 5
please rate
add to favorites
launch autoscroll
font size
0
reset
how to read this tab
guitar tuner
Tab Pro tools
  • play this tab
  • loop segment
  • change instrument
  • show fretboard
  • metronome
Autoscroll
slow
fast
+/-
esc
set tempo
stop
Contributor
Difficulty
novice
well this is how close i can get to the solo. it is in standard tunning. 
                             **NOTICE!!** 
  I have tabbed the rest of the song and have further updated the solo in the new 
tab. Check it out!!     


|---------------------------------------------------|
|---------6---------6-------------------------------|
|--------------6---------6-----5h6p5h6p5h6p5h6p5h6p5|
|----------6h8---6h8--6h8--6h8----------------------|
|---------------------------------------------------|
|---------------------------------------------------|


it sounds correct, but i'm not sure how correct it is decent. 
good luck!! XD 



| /   slide up
| \   slide down
| h   hammer-on
| p   pull-off
| ~   vibrato
| +   harmonic
| x   Mute note
| b   Bend
| pb  Pre-bend
| br  Bend release
| pbr Pre-bend release
| brb Bend release bend
comments
We did not receive enough feedback on this tab! Please rate:
print report bad tab
1 2 3 4 5
1 comment total.
0 reply
shiffy wrote on September 7 2012, 06:20 am

Mate, A for effort, and it does actually sound ok, but it's not the right one buddy. The solo actually goes
|---------------------------------------------------------|
|------------6----------------------6---------------------|
|---------------------6-----------------------6----------5|(Bend up and down heaps on this note)
|-----6h7h8-------6-8--------6h7h8--------6-8----6h7h8----|
|--------------8-----------------------8------------------|
|---------------------------------------------------------|

I want to post or [tab]
guest
You may want to rate the tab now too:
select rating
Please do not post tabs as comments. Select "correction" instead!