Oops, an error
Loading. Please wait.

Chemical Kids And Mechanical Brides Tab

version 1
version 1

Whole song

16,207 views 6 this week
2 commentsread comments
1 2 3 4 5
accurate
x 4
add to favorites
launch autoscroll
font size
0
reset
how to read this tab
guitar tuner
Autoscroll
slow
fast
+/-
esc
set tempo
stop
Help us to improve Ultimate-Guitar.com Take our survey!
×
Contributor

Guitar 1:
e|-------------------------|\----------------------------------------------|
B|-------------------------|-\---------------------------------------------|
G|-8-88888\-----4-44444\---|--\x3------------------------------------------|
D|-8-88888-\x4--4-44444-\x4|--/--------------------------------------------|
A|-6-66666-/----2-22222-/--|-/---------------------------------------------|
E|-6-66666/-----2-22222/---|/----------------------------------------------|
 ^^^^^^^^^^^^^^^^^^^strummed down..,down,up,down,up,down

Guitar 2:
e|--------------------------------------------------------------------------|
B|--------11~~--------11~~--------------------------------------------------|
G|---8-10--------8-10--------8-10-6~~-8-8h10p0-6-6h8p0-8-8h10p0-8-8\6p0-----|
D|--------------------------------------------------------------------------|
A|-9-----------------------9------------------------------------------------|
E|-------------9------------------------------------------------------------|

e|--------------------------------------------------------------------------|
B|--------------------------------------------------------------------------|
G|--8-8h10p0-6-6h8p0-10-10\8p0-8-8\6p0--------------------------------------|
D|--------------------------------------------------------------------------|
A|--------------------------------------------------------------------------|
E|--------------------------------------------------------------------------|

Both Guitars:
e|-----------------------------------------------------------\--------------|
B|------------------------------------------------------------\-------------|
G|-------------------------------------------------------------\------------|
D|-----------------4p0----------------------------3p0-----------\-----------|
A|-4-4-6p4-5p4-4p0-----3p0 3h4p0--4-4-6p4-5p4-4p0-----3p0-3/4\3--\----------|
E|-4-4----------------------------4-4-----------------------------\---------|
                                                                   x2
e|----------------------------------------------------------------/---------|
B|---------------------------------------------------------------/----------|
G|--------------------------------------------------------------/-----------|
D|-------------4p0-3p0-----------------------4p0-3p0-----------/------------|
A|-2-2-5p0-4p0---------4p0-3h4p0-2-2-5p0-4p0---------3p0-3/4\3/-------------|
E|-2-2---------------------------2-2-------------------------/--------------|

Both Guitars:
e|-------------------------------------------------------------|
B|---------------------------------10-10-1010101010101010101010|
G|-------------------------------------------------------------|
D|-8-8-88888888888-8-8-88888888888-8-8-88888888888-------------|
A|-8-8-88888888888-8-8-88888888888-8-8-88888888888-------------|
E|-6-6-66666666666-6-6-66666666666-6-6-66666666666-------------|
  ^^strummed down,up,down.....
e|------------------------------------|
B|------------------------------------|
G|------------------------------------|
D|-12-12-12--10-10-10--8-8-8--10-10-10|
A|-11-11-11--9--9--9---7-7-7--9--9--9-|
E|-xx-xx-xx--xx-xx-xx--x-x-x--xx-xx-xx|
  ^^^palm mute Estring with thumb and strum down,down,up
Both Guitars:
e|------6---6--------8---8--------9---9-----9/11-10-9-|
B|-0~-6---6---6-0~-6---6---6-0~-6---6---6-0~----------|
G|-0~-----------0~-----------0~-----------0~----------|
D|-0~-----------0~-----------0~-----------0~----------|
A|-0~-----------0~-----------0~-----------0~----------|
E|-0~-----------0~-----------0~-----------0~----------|
gt1^ gt2^    gt1^ gt2^    gt1^ gt2^    gt1^ gt2^
e|-------4-3p0-2p0----------|
B|-0~-0~-----------3p0-2h3p0|
G|-0~-0~--------------------|
D|-0~-0~--------------------|
A|-0~-0~--------------------|
E|-0~-0~--------------------|
gt1^^^^  gt2^

Guitar 1:
e|------------------------------------|
B|------------------------------------|
G|------------------------------------|
D|-8-8-8--8~-7~-4-4-4--4-4-4--8~-8~-7~|
A|-8-8-8--8~-7~-4-4-4--4-4-4--8~-8~-7~|
E|-6-6-6--6~-5~-2-2-2--2-2-2--6~-6~-5~|

e|----------------------------------------------------------|
B|----------------------------------------------------------|
G|-10^---------------10^----------------10h11p10h11p10h11p10|
D|----9h10h11-9h10p9-----9h10h11-9h10p9---------------------|
A|----------------------------------------------------------|
E|----------------------------------------------------------|

Guitar 2:
e|---------------------------------------------------------------|
B|---------------------------------------------------------------|
G|---------------------------------------------------------------|
D|-8-8-8--8~-7~-4-4-4--4-4-4--8~-8~-7~-4-4-4--4-4-4--3-3-3--3-3-3|
A|-8-8-8--8~-7~-4-4-4--4-4-4--8~-8~-7~-4-4-4--4-4-4--3-3-3--3-3-3|
E|-6-6-6--6~-5~-2-2-2--2-2-2--6~-6~-5~-2-2-2--2-2-2--1-1-1--1-1-1|

Both Guitars:

e|-----------------------------------|
B|-----------------------------------|
G|-------------------------------\---|
D|-3-3-3--3--3--3--8-8-8--8--8--8-\x2|
A|-3-3-3--3--3--3--8-8-8--8--8--8-/--|
E|-1-1-1--1--1--1--6-6-6--6--6--6/---|

Guitar 1:
e|---------------------------------------------------------------|
B|-----------10\-----10\-----------------------------------------|
G|--------------\-------\----------------------------------------|
D|------8\---8---\x6-9---\---11----------------------------------|
A|-8\x3-8-x3-8---/---9---/x6-10----------------------------------|
E|-6/---6/---6--/----8--/----9-----------------------------------|
-----------------------------------------------------------------|

Guitar2:
e|----------13----13---11---11---13---13---11---11|
B|-------11----11---11---11---10---10---10---10---|
G|----11----11---11---11---10---10---10---10------|
D|-11----11---11---11---10---10---10---10---------|
A|------------------------------------------------|
E|------------------------------------------------|
   look// way lol too see how it goes
e|------------------------------\----------------------------------------|
B|-------------------------------\---------------------------------------|
G|-----------\--------------\-----\--------------------------------------|
D|-8--8-8-8-8-\---4--4-4-4-4-\----/x2-8-8-8-8--8~-4-4-4-4--4-4-4-7-7-7-8~|
A|-8--8-8-8-8-/x4-4--4-4-4-4-/x4-/----8-8-8-8--8~-4-4-4-4--4-4-4-7-7-7-8~|
E|-6--6-6-6-6/----2--2-2-2-2/---/-----6-6-6-6--6~-2-2-2-2--2-2-2-5-5-7-6~|

e|----------13----13---11---11---13---13---11---11\----|
B|-------11----11---11---11---10---10---10---10----\---|
G|----11----11---11---11---10---10---10---10--------\--|
D|-11----11---11---11---10---10---10---10-----------/x2|
A|-------------------------------------------------/---|
E|------------------------------------------------/----|

e|----------13----13---11---11--13------|
B|-------11----11---11---11-----11------|
G|----11----11---11---11--------11------|
D|-11----11---11---11-----------11------|
A|--------------------------------------|
E|--------------------------------------|

well yeah thats the tab email me if you got any questions or better tabs that i
can put, Loarcamarco@univision.com.
comments
print report bad tab
2 comments total.
+1 reply
Yazawo 119 wrote on August 29 2010, 06:31 pm

all I can say is if there is a 0 its wrong, ive seen them play this live they had capo's on

0 reply
middaysilence 316 wrote on September 2 2010, 01:12 pm

this is ****ing terrible. do you even know how to play guitar?

I want to post or [tab]
guest
You may want to rate the tab now too:
select rating
Please do not post tabs as comments. Select "correction" instead!