Oops, an error
Loading. Please wait.

Circles Tab

version 1
version 1

Acoustic

Whole song

Interactive

193 views 24 this week
no commentswrite comment
1 2 3 4 5
2 more votes to show rating
add to favorites
launch autoscroll
font size
0
reset
how to read this tab
guitar tuner
Autoscroll
slow
fast
+/-
esc
set tempo
stop
Help us to improve Ultimate-Guitar.com Take our survey!
×
Author
Difficulty
Capo
novice
1st fret
[Intro]

e|------------------------------------------------|
B|------------1-----------1-----------1-----------|
G|------0-----------0-----------0-----------0-----|
D|---------2-----------2-----------2-----------2--|
A|---3-----------3-----------3-----------3--------|
E|------------------------------------------------|

e|------------------------------------------------|
B|------------1-----------0-----------0-----------|
G|------2-----------2-----------2-----------2-----|
D|---------2-----------2-----------2-----------2--|
A|---0-----------0-----------0-----------0--------|
E|------------------------------------------------|
Suggest correction
Give kudos to tab author, rate the tab!
1 2 3 4 5
comments
print report bad tab
guest
You may want to rate the tab now too:
select rating
Wanna post a correction for this tab? Suggest correction