Oops, an error
Loading. Please wait.

Circles tab

version 1
version 1

Whole song

Interactive

19,141 views 57 this week
3 commentsread comments
1 2 3 4 5
x 17
add to favorites
×
Save as Personal and add changes to this tab that will be seen only by you. Learn more ›
×
You can save this tab as Personal to edit and correct it or add notes. All changes will be seen only by you. Learn more »
launch autoscroll
font size
0
reset
how to read this tab
guitar tuner
edit
Autoscroll
slow
fast
+/-
esc
set tempo
stop
Tabbed by: Blake McConnell
Check out my cover: https://www.youtube.com/watch?v=9yqSld9AnTE


[Intro]

C#|---------------------------------------------------------------------------|
G#|---------------------------------------------------------------------------|
E |------------------10-10-10-10-9-9-9-9-7-7-7-7-7-7-7-7----------------------|
B |--3-3-3-3-3-3-3-3----------------------------------------------------------| 2 times
F#|--3-3-3-3-3-3-3-3-8--8--8--8--7-7-7-7-5-5-5-5-5-5-5-5----------------------|
B |--3-3-3-3-3-3-3-3----------------------------------------------------------|


[Verse]

C#|---------------------------------------------------------------------------|
G#|---------------------------------------------------------------------------|
E |---------------------------------------------------------------------------|
B |--3-3-3-3-3-3-3-3-3-3-3-3-3-3-3-3-0-0-0-0-0-0-0-0-0-0-0-0-0-0-0-0----------| 2 times
F#|--3-3-3-3-3-3-3-3-3-3-3-3-3-3-3-3-0-0-0-0-0-0-0-0-0-0-0-0-0-0-0-0----------|
B |--3-3-3-3-3-3-3-3-3-3-3-3-3-3-3-3-0-0-0-0-0-0-0-0-0-0-0-0-0-0-0-0----------|

   PM---------------------------------------------------------------

C#|----------------------------------------------------------------------------|
G#|-/5~-----/8~-/5~------/5~-----/8~-/5~---------------------------------------|
E |-----/5~---------/7~------/5~---------/7~-----------------------------------|
B |-----------------------------------------------8----------------------------|
F#|-----------------------------------------------8----------------------------|
B |-----------------------------------------------8----------------------------|


[Chorus]

C#|---------------------------------------------------------------------------|
G#|---------------------------------------------------------------------------|
E |---------------------------------------------------------------------------|
B |-0-0-0-0-0-0-0-0-3-3-3-3-3-3-3-3-8-8-8-8-8-8-8-8-8-8-8-8-8-8-8-8-8-8-------|
F#|-0-0-0-0-0-0-0-0-3-3-3-3-3-3-3-3-8-8-8-8-8-8-8-8-8-8-8-8-8-8-8-8-8-8-------|
B |-0-0-0-0-0-0-0-0-3-3-3-3-3-3-3-3-8-8-8-8-8-8-8-8-8-8-8-8-8-8-8-8-8-8-------|

C#|---------------------------------------------------------------------------|
G#|---------------------------------------------------------------------------|
E |------------------------------------------------------------5--------------|
B |-0-0-0-0-0-0-0-0-3-3-3-3-3-3-3-3-8-8-8-8-8-8-8-----------------------------|
F#|-0-0-0-0-0-0-0-0-3-3-3-3-3-3-3-3-8-8-8-8-8-8-8-----------------------------|
B |-0-0-0-0-0-0-0-0-3-3-3-3-3-3-3-3-8-8-8-8-8-8-8--8-7-3-8-7-5----------------|

C#|---------------------------------------------------------------------------|
G#|---------------------------------------------------------------------------|
E |---------------------------------------------------------------------------|
B |-0-0-0-0-0-0-0-0-3-3-3-3-3-3-3-3-8-8-8-8-8-8-8-8-8-8-8-8-8-8-8-8-8-8-------|
F#|-0-0-0-0-0-0-0-0-3-3-3-3-3-3-3-3-8-8-8-8-8-8-8-8-8-8-8-8-8-8-8-8-8-8-------|
B |-0-0-0-0-0-0-0-0-3-3-3-3-3-3-3-3-8-8-8-8-8-8-8-8-8-8-8-8-8-8-8-8-8-8-------|

C#|---------------------------------------------------------------------------|
G#|---------------------------------------------------------------------------|
E |---------------------------------------------------------------------------|
B |-0-0-0-0-0-0-0-0-3-3-3-3-3-3-3-3-8-8-8-8-8-8-8-8-8-8-8-8-8-8-8-8-8-8-------|
F#|-0-0-0-0-0-0-0-0-3-3-3-3-3-3-3-3-8-8-8-8-8-8-8-8-8-8-8-8-8-8-8-8-8-8-------|
B |-0-0-0-0-0-0-0-0-3-3-3-3-3-3-3-3-8-8-8-8-8-8-8-8-8-8-8-8-8-8-8-8-8-8-------|


[Interlude]

C#|---------------------------------------------------------------------------|
G#|---------------------------------------------------------------------------|
E |-14-14-14-14-14-14-14-17-17-17-17-17-17-17-17------------------------------|
B |---------------------------------------------------------------------------|
F#|-12-12-12-12-12-12-12-15-15-15-15-15-15-15-15------------------------------|
B |---------------------------------------------------------------------------|

C#|---------------------------------------------------------------------------|
G#|---------------------------------------------------------------------------|
E |-7-7-7-7-7-7-7-7-14-14-14-14-14-14-14-14-----------------------------------|
B |---------------------------------------------------------------------------|
F#|-5-5-5-5-5-5-5-5-12-12-12-12-12-12-12-12-----------------------------------|
B |---------------------------------------------------------------------------|


[Verse 2]

C#|---------------------------------------------------------------------------|
G#|---------------------------------------------------------------------------|
E |---------------------------------------------------------------------------|
B |--3-3-3-3-3-3-3-3-3-3-3-3-3-3-3-3-0-0-0-0-0-0-0-0-0-0-0-0-0-0-0-0----------| 2 times
F#|--3-3-3-3-3-3-3-3-3-3-3-3-3-3-3-3-0-0-0-0-0-0-0-0-0-0-0-0-0-0-0-0----------|
B |--3-3-3-3-3-3-3-3-3-3-3-3-3-3-3-3-0-0-0-0-0-0-0-0-0-0-0-0-0-0-0-0----------|

    PM--------------------------------------------------------------

C#|------------------------------------------------------------------------------|
G#|------------------------------------------------------------------------------|
E |------------------------------------------------------------------------------|
B |--3-3--3--3-3------7---0-0--0--0-0-----7----3-3--3--3-3-----7---8-8-8-8-8-8---| 
F#|--3-3--3--3-3----------0-0--0--0-0----------3-3--3--3-3---------8-8-8-8-8-8---|
B |--3-3--3--3-3--3-5-----0-0--0--0-0--3-5-----3-3--3--3-3--3-5----8-8-8-8-8-8---|

   PM--      ---          ---     ---          ---     ---         ---------


[Chorus]

C#|---------------------------------------------------------------------------|
G#|---------------------------------------------------------------------------|
E |---------------------------------------------------------------------------|
B |-0-0-0-0-0-0-0-0-3-3-3-3-3-3-3-3-8-8-8-8-8-8-8-8-8-8-8-8-8-8-8-8-8-8-------|
F#|-0-0-0-0-0-0-0-0-3-3-3-3-3-3-3-3-8-8-8-8-8-8-8-8-8-8-8-8-8-8-8-8-8-8-------|
B |-0-0-0-0-0-0-0-0-3-3-3-3-3-3-3-3-8-8-8-8-8-8-8-8-8-8-8-8-8-8-8-8-8-8-------|

C#|---------------------------------------------------------------------------|
G#|---------------------------------------------------------------------------|
E |------------------------------------------------------------5--------------|
B |-0-0-0-0-0-0-0-0-3-3-3-3-3-3-3-3-8-8-8-8-8-8-8-----------------------------|
F#|-0-0-0-0-0-0-0-0-3-3-3-3-3-3-3-3-8-8-8-8-8-8-8-----------------------------|
B |-0-0-0-0-0-0-0-0-3-3-3-3-3-3-3-3-8-8-8-8-8-8-8--8-7-3-8-7-5----------------|

C#|---------------------------------------------------------------------------|
G#|---------------------------------------------------------------------------|
E |---------------------------------------------------------------------------|
B |-0-0-0-0-0-0-0-0-3-3-3-3-3-3-3-3-8-8-8-8-8-8-8-8-8-8-8-8-8-8-8-8-8-8-------|
F#|-0-0-0-0-0-0-0-0-3-3-3-3-3-3-3-3-8-8-8-8-8-8-8-8-8-8-8-8-8-8-8-8-8-8-------|
B |-0-0-0-0-0-0-0-0-3-3-3-3-3-3-3-3-8-8-8-8-8-8-8-8-8-8-8-8-8-8-8-8-8-8-------|

C#|---------------------------------------------------------------------------|
G#|---------------------------------------------------------------------------|
E |---------------------------------------------------------------------------|
B |-0-0-0-0-0-0-0-0-3-3-3-3-3-3-3-3-8-8-8-8-8-8-8-8-8-8-8-8-8-8-8-8-8-8-------|
F#|-0-0-0-0-0-0-0-0-3-3-3-3-3-3-3-3-8-8-8-8-8-8-8-8-8-8-8-8-8-8-8-8-8-8-------|
B |-0-0-0-0-0-0-0-0-3-3-3-3-3-3-3-3-8-8-8-8-8-8-8-8-8-8-8-8-8-8-8-8-8-8-------|


[Bridge]

C#|---------------------------------------------------------------------------|
G#|--10-10-10-10-10-10-10-10-10-10-10-10-5-5-5-5-5-5-5-5-5-5-5-5-5-5-5-5------|
E |--10-10-10-10-10-10-10-10-10-10-10-10-5-5-5-5-5-5-5-5-5-5-5-5-5-5-5-5------|
B |--8--8--8--8--8--8--8--8--8--8--8--8--3-3-3-3-3-3-3-3-3-3-3-3-3-3-3-3------| 8 times
F#|--8--8--8--8--8--8--8--8--8--8--8--8--3-3-3-3-3-3-3-3-3-3-3-3-3-3-3-3------|
B |--8--8--8--8--8--8--8--8--8--8--8--8--3-3-3-3-3-3-3-3-3-3-3-3-3-3-3-3------|

C#|---------------------------------------------------------------------------|
G#|-/5~-----/8~-/5~------/5~-----/8~-/5~------10h11 10h11-10h11-10h11---------|
E |-----/5~---------/7~------/5~---------/7~----------------------------------|
B |---------------------------------------------------------------------------|
F#|---------------------------------------------------------------------------|
B |---------------------------------------------------------------------------|

C#|---------------------------------------------------------------------------|
G#|-10h11-10h11-10h11-10h11--13h15-13h15-13h15-13h15-13h15-13h15-13h15-13h15--|
E |---------------------------------------------------------------------------|
B |---------------------------------------------------------------------------|
F#|---------------------------------------------------------------------------|
B |---------------------------------------------------------------------------|

C#|---------------------------------------------------------------------------|
G#|-6-6-4-4-6-6-4-4-6-6-4-4-6-6-4-4-6-6-4-4-6-6-------------------------------|
E |-----~---------------------------------------------------------------------|
B |---------------------------------------------------------------------------|
F#|---------------------------------------------------------------------------|
B |---------------------------------------------------------------------------|


[Chorus]

C#|---------------------------------------------------------------------------|
G#|---------------------------------------------------------------------------|
E |------------------------------------------------------------5--------------|
B |-0-0-0-0-0-0-0-0-3-3-3-3-3-3-3-3-8-8-8-8-8-8-8-----------------------------|
F#|-0-0-0-0-0-0-0-0-3-3-3-3-3-3-3-3-8-8-8-8-8-8-8-----------------------------|
B |-0-0-0-0-0-0-0-0-3-3-3-3-3-3-3-3-8-8-8-8-8-8-8--8-7-3-8-7-5----------------|

C#|---------------------------------------------------------------------------|
G#|---------------------------------------------------------------------------|
E |---------------------------------------------------------------------------|
B |-0-0-0-0-0-0-0-0-3-3-3-3-3-3-3-3-8-8-8-8-8-8-8-8-8-8-8-8-8-8-8-8-8-8-------|
F#|-0-0-0-0-0-0-0-0-3-3-3-3-3-3-3-3-8-8-8-8-8-8-8-8-8-8-8-8-8-8-8-8-8-8-------|
B |-0-0-0-0-0-0-0-0-3-3-3-3-3-3-3-3-8-8-8-8-8-8-8-8-8-8-8-8-8-8-8-8-8-8-------|

C#|---------------------------------------------------------------------------|
G#|---------------------------------------------------------------------------|
E |---------------------------------------------------------------------------|
B |-0-0-0-0-0-0-0-0-3-3-3-3-3-3-3-3-8-8-8-8-8-8-8-8-8-8-8-8-8-8-8-8-8-8-------|
F#|-0-0-0-0-0-0-0-0-3-3-3-3-3-3-3-3-8-8-8-8-8-8-8-8-8-8-8-8-8-8-8-8-8-8-------|
B |-0-0-0-0-0-0-0-0-3-3-3-3-3-3-3-3-8-8-8-8-8-8-8-8-8-8-8-8-8-8-8-8-8-8-------|

C#|---------------------------------------------------------------------------|
G#|---------------------------------------------------------------------------|
E |---------------------------------------------------------------------------|
B |-0-0-x-x-x-x-x-x-3-3-x-x-x-x-x-x-8-8-x-x-x-x-x-x-8-8-x-x-x-x-x-x-----------|
F#|-0-0-x-x-x-x-x-x-3-3-x-x-x-x-x-x-8-8-x-x-x-x-x-x-8-8-x-x-x-x-x-x-----------|
B |-0-0-x-x-x-x-x-x-3-3-x-x-x-x-x-x-8-8-x-x-x-x-x-x-8-8-x-x-x-x-x-x-----------|

C#|---------------------------------------------------------------------------|
G#|---------------------------------------------------------------------------|
E |---------------------------------------------------------------------------|
B |-0-0-x-x-x-x-x-x-3-3-x-x-x-x-x-x-8-8-8-------------------------------------|
F#|-0-0-x-x-x-x-x-x-3-3-x-x-x-x-x-x-8-8-8---10-12~----------------------------|
B |-0-0-x-x-x-x-x-x-3-3-x-x-x-x-x-x-8-8-8----------3/5\3~---------------------|



************************************

| x  Dead note
| h  Hammer-on
| /  Slide up
| \  Slide down
| ~  Vibrato


************************************

            
            
Suggest correction
Creating personal tab
Creating personal tab
You can edit any tab online and save it as your Personal.

You can edit, replace or remove any tab part or add personal notes – all changes will be seen only by you.

Personal tabs can be accessed anytime from any device, even offline.
Learn more »
comments
print report bad tab
3 comments total.
0 reply
Janet2000 10 May 04, 2016 04:04 PM

I saw your cover and its great but looking at the tab, the only problem is that pierce the veil primarly uses drop c sharp tuning, But either way great job

0 reply
zacharyplatero10 10 Jul 25, 2016 01:06 PM

can any one help me after the verse i can't get the slides to sound like the cover.Please help.

guest
You may want to rate the tab now too:
select rating
Wanna post a correction for this tab? Suggest correction