Oops, an error
Loading. Please wait.

Circles tab

version 2
version 2

Whole song

Interactive

13,480 views 183 this week
1 commentread comment
1 2 3 4 5
x 20
add to favorites
×
Save as Personal and add changes to this tab that will be seen only by you. Learn more ›
×
You can save this tab as Personal to edit and correct it or add notes. All changes will be seen only by you. Learn more »
launch autoscroll
font size
0
reset
how to read this tab
guitar tuner
edit
Autoscroll
slow
fast
+/-
esc
set tempo
stop
[Intro]

e|---------------------------------------------------------------------------|
B|---------------------------------------------------------------------------|
G|--7--------------------------------6-----------------4---------------------|
D|--4--------------------------------4-----------------4---------------------|2 times
A|--5--------------------------------5-----------------5---------------------|
D|---------------------------------------------------------------------------|

e|---------------------------------------------------------------------------|
B|---------------------------------------------------------------------------|
G|-------------------7-7-7-7-6-6-6-6-----------------------------------------|
D|--4-4-4-4-4-4-4-4------------------4-4-4-4-4-4-4-4-4-4-4-4-4-4-4-4---------|2 times
A|--0-0-0-0-0 0-0-0--5-5-5-5-4-4-4-4-2-2-2-2-2-2-2-2-2-2-2-2-2-2-2-2---------|
D|--0-0-0-0-0 0-0-0----------------------------------------------------------|


[Verse]

e|---------------------------------------------------------------------------|
B|---------------------------------------------------------------------------|
G|---------------------------------------------------------------------------|
D|--4-4-4-4-4-4-4-4-4-4-4-4-4-4-4-4------------------------------------------|
A|--5-5-5-5-5-5-5-5-5-5-5-5-5-5-5-5-2-2-2-2-2-2-2-2-2-2-2-2-2-2-2-2----------|
D|---------------------------------------------------------------------------|
    PM
e|---------------------------------------------------------------------------|
B|---------------------------------------------------------------------------|
G|---------------------------------------------------------------------------|
D|--4-4-4-4-4-4-4-4-4-4-4-4-4-4-4-4------------------------------------------|
A|--5-5-5-5-5-5-5-5-5-5-5-5-5-5-5-5-0-0-2-2-2-2-2-2-2-2-2-2-2-2-2-2----------|
D|---------------------------------------------------------------------------|
   PM
e|---------------------------------------------------------------------------|
B|---------------------------------------------------------------------------|
G|---------------------------------------------------------------------------|
D|--0-0----0----0----0-0-0----0----0----0-4-4----4----4----4-4-4---4----4-4-4|2 times
A|--0-0----0----0----0-0-0----0----0----0-2-2----2----2----2-2-2---2----2-2-2|
D|--0-0----0----0----0-0-0----0----0----0------------------------------------|
    PM


[Pre-Chorus}

e|---------------------------------------------------------------------------|
B|---------------------------------------------------------------------------|
G|---------------------------------------------------------------------------|
D|--5------------------------------------------------------------------------|
A|--5-------------------------------------------------------------------------|
D|--5-------------------------------------------------------------------------|


[Chorus]

e|---------------------------------------------------------------------------|
B|---------------------------------------------------------------------------|
G|---------------------------------------------------------------------------|
D|--4-4-4-4-4-4-4-4-4-4-4-4-4-4-4-4-5-5-5-5-5-5-5-5-5-5-5-5-5-5-5-5----------|
A|--2-2-2-2-2-2-2-2-5-5-5-5-5-5-5-5-5-5-5-5-5-5-5-5-5-5-5-5-5-5-5-5----------|
D|------------------0-0-0-0-0-0-0-0-5-5-5-5-5-5-5-5-5-5-5-5-5-5-5-5----------|

e|---------------------------------------------------------------------------|
B|---------------------------------------------------------------------------|
G|---------------------------------------------------------------------------|
D|--4-4-4-4-4-4-4-4-4-4-4-4-4-4-4-4-5-5-5-5-5-5-5-5-5-5-5-5-5-5-4-7----------|
A|--2-2-2-2-2-2-2-2-5-5-5-5-5-5-5-5-5-5-5-5-5-5-5-5-5-5-5-5-5-5-4------------|
D|------------------0-0-0-0-0-0-0-0-5-5-5-5-5-5-5-5-5-5-5-5-5-5-4------------|
                                                                  *pinch harmonic

e|---------------------------------------------------------------------------|
B|----------------------------------------7-7-7-------7-7-7-----7-7----------|
G|----------------------------------------7-7-7-------7-7-7-----7-7----------|
D|--4-4-4-4-4-4-4-4-4-4-4-4-4-4-4-4-5-5-5-------5-5-5-------5-5--------------|
A|--2-2-2-2-2-2-2-2-5-5-5-5-5-5-5-5-5-5-5-------5-5-5-------5-5--------------|
D|------------------0-0-0-0-0-0-0-0-5-5-5-------5-5-5-------5-5--------------|

e|---------------------------------------------------------------------------|
B|---------------------------------------------------------------------------|
G|---------------------------------------------------------------------------|
D|--4-4-4-4-4-4-4-4-4-4-4-4-4-4-4-4-5-5-5-5-5-5-5-5-5-5-5-5-5-5-5-5----------|
A|--2-2-2-2-2-2-2-2-5-5-5-5-5-5-5-5-5-5-5-5-5-5-5-5-5-5-5-5-5-5-5-5----------|
D|------------------0-0-0-0-0-0-0-0-5-5-5-5-5-5-5-5-5-5-5-5-5-5-5-5----------|


[Instrumental]

e|---------------------------------------------------------------------------|
B|---------------------------------------------------------------------------|
G|--------------------------7-7-7-7-6-6-6-6-6-6-6-6-4-4-4-4-4-9-9-9----------|
D|--4-4-4-4-4-4-4-4-7-7-7-7--------------------------------------------------|
A|---------------------------------------------------------------------------|
D|---------------------------------------------------------------------------|
                                                                

[Verse]

e|---------------------------------------------------------------------------|
B|---------------------------------------------------------------------------|
G|---------------------------------------------------------------------------|
D|---------------------------------------------------------------------------|
A|----------------------------5-4-0-2-2-2-2-2-2-2-2-4-5-0--------------------|
D|--0-0-0-0-0-0-0-0-0-0-0-0-0-----------------------------0-0-0-0-0-0-0-0----|
  PM
e|---------------------------------------------------------------------------|
B|---------------------------------------------------------------------------|
G|---------------------------------------------------------------------------|
D|---------------------------------------------------------------------------|
A|------------------2-2-2-2-2-2-2-2------------------------------------------|
D|--0-0-0-0-0-5-4-0----------------------------------------------------------|

e|---------------------------------------------------------------------------|
B|---------------------------------------------------------------------------|
G|---------------------------------------------------------------------------|
D|---------------------------------------4-4---------4-4----4----------------|
A|------------------------------4-5-7----2-2---------2-2----2------0-2-4-5---|
D|--0-0-----------0-0----0----0----------------------------------------------|
                                                                         *harmonic

e|---------------------------------------------------------------------------|
B|---------------------------------------------------------------------------|
G|---------------------------------------------------------------------------|
D|---------------------------------------------------------------------------|
A|------------------------------4-5-7----------------------------------------|
D|--0-0-----------0-0----0----0-----------5-5-5-5-5-5-5-5-5------------------|


[Chorus]

e|---------------------------------------------------------------------------|
B|---------------------------------------------------------------------------|
G|---------------------------------------------------------------------------|
D|--4-4-4-4-4-4-4-4-4-4-4-4-4-4-4-4-5-5-5-5-5-5-5-5-5-5-5-5-5-5-5-5----------|
A|--2-2-2-2-2-2-2-2-5-5-5-5-5-5-5-5-5-5-5-5-5-5-5-5-5-5-5-5-5-5-5-5----------|
D|------------------0-0-0-0-0-0-0-0-5-5-5-5-5-5-5-5-5-5-5-5-5-5-5-5----------|

e|---------------------------------------------------------------------------|
B|---------------------------------------------------------------------------|
G|---------------------------------------------------------------------------|
D|--4-4-4-4-4-4-4-4-4-4-4-4-4-4-4-4-5-5-5-5-5-5-5-5--------------------------|
A|--2-2-2-2-2-2-2-2-5-5-5-5-5-5-5-5-5-5-5-5-5-5-5-5--------------------------|
D|------------------0-0-0-0-0-0-0-0-5-5-5-5-5-5-5-5-5-4-0-5-4-0-4------------|
                                                                  *pinch harmonic

e|---------------------------------------------------------------------------|
B|----------------------------------------7-7-7-------7-7-7-----7-7----------|
G|----------------------------------------7-7-7-------7-7-7-----7-7----------|
D|--4-4-4-4-4-4-4-4-4-4-4-4-4-4-4-4-5-5-5-------5-5-5-------5-5--------------|
A|--2-2-2-2-2-2-2-2-5-5-5-5-5-5-5-5-5-5-5-------5-5-5-------5-5--------------|
D|------------------0-0-0-0-0-0-0-0-5-5-5-------5-5-5-------5-5--------------|

e|---------------------------------------------------------------------------|
B|---------------------------------------------------------------------------|
G|---------------------------------------------------------------------------|
D|--4-4-4-4-4-4-4-4-4-4-4-4-4-4-4-4-5-5-5-5-5-5-5-5-5-5-5-5-5-5-5-5----------|
A|--2-2-2-2-2-2-2-2-5-5-5-5-5-5-5-5-5-5-5-5-5-5-5-5-5-5-5-5-5-5-5-5----------|
D|------------------0-0-0-0-0-0-0-0-5-5-5-5-5-5-5-5-5-5-5-5-5-5-5-5----------|


[Bridge]

e|--7-------------------------------------------------------------------------|
B|--8----------------------------------7--------------------------------------|
G|--9----------------------------------7--------------------------------------|4 times
D|-------------------------------------7--------------------------------------|
A|----------------------------------------------------------------------------|
D|----------------------------------------------------------------------------|

e|----------------------------------------------------------------------------|
B|--15-----15b17-14----12-------------------------------10-12-10-12-10-12-10--|
G|------14----------------11----11-12-11-12-11-12-11-12-----------------------|
D|----------------------------------------------------------------------------|
A|----------------------------------------------------------------------------|
D|----------------------------------------------------------------------------|


[Chorus]

e|----------------------------------------------------------------------------|
B|----------------------------------------------------------------------------|
G|----9-7---9-7-9-7---9-7---9-7-9-7---9-7---9-7-9-7---9-7---9-----------------|
D|--7-----7---------7-----7---------7-----7---------7-----7-------------------|
A|----------------------------------------------------------------------------|
D|----------------------------------------------------------------------------|

e|---------------------------------------------------------------------------|
B|---------------------------------------------------------------------------|
G|---------------------------------------------------------------------------|
D|--4-4-4-4-4-4-4-4-4-4-4-4-4-4-4-4-5-5-5-5-5-5-5-5-5-5-5-5-5-5-4-7----------|
A|--2-2-2-2-2-2-2-2-5-5-5-5-5-5-5-5-5-5-5-5-5-5-5-5-5-5-5-5-5-5-4------------|
D|------------------0-0-0-0-0-0-0-0-5-5-5-5-5-5-5-5-5-5-5-5-5-5-4------------|
                                                                  *pinch harmonic
e|---------------------------------------------------------------------------|
B|---------------------------------------------------------------------------|
G|---------------------------------------------------------------------------|
D|---------------------------------7-7-7-7-7-7-7-7-7-7-7-7-7-----------------|
A|--2-2------2-0-2-5-5-5-5-5-5-5-5-5-5-5-5-5-5-5-5-5-5-5-5-5-----------------|
D|---------------------------------5-5-5-5-5-5-5-5-5-5-5-5-5-----------------|


e|---------------------------------------------------------------------------|
B|---------------------------------------------------------------------------|
G|---------------------------------------------------------------------------|
D|--4-4-4-4-4-4-4-4-4-4-4-4-4-4-4-4-5-5-5-5-5-5-5-5-5-5-5-5-5-5-5-5----------|
A|--2-2-2-2-2-2-2-2-5-5-5-5-5-5-5-5-5-5-5-5-5-5-5-5-5-5-5-5-5-5-5-5----------|
D|------------------0-0-0-0-0-0-0-0-5-5-5-5-5-5-5-5-5-5-5-5-5-5-5-5----------|

e|---------------------------------------------------------------------------|
B|---------------------------------------------------------------------------|
G|---------------------------------------------------------------------------|
D|--4-4-x-x-x-x-x-x-4-7-x-x-x-x-x-x-7-5-x-x-x-x-x-x--5-------5---------------|
A|--2-2-x-x-x-x-x-x-2-4-x-x-x-x-x-x-5-5-x-x-x-x-x-x--5-------5---------------|
D|------x-x-x-x-x-x-----x-x-x-x-x-x---5-x-x-x-x-x-x--5-------5---------------|

e|---------------------------------------------------------------------------|
B|---------------------------------------------------------------------------|
G|---------------------------------------------------------------------------|
D|--4-4-x-x-x-x-x-x-4-7-x-x-x-x-x-x-5-4-0-5---5---5--------------------------|
A|--2-2-x-x-x-x-x-x-2-4-x-x-x-x-x-x-------5---5---5--------------------------|
D|------x-x-x-x-x-x-----x-x-x-x-x-x-------5---5---5--------------------------|



************************************

| x  Dead note
| b  Bend   
| PM Palm Mute

************************************

            
            
Suggest correction
Creating personal tab
Creating personal tab
You can edit any tab online and save it as your Personal.

You can edit, replace or remove any tab part or add personal notes – all changes will be seen only by you.

Personal tabs can be accessed anytime from any device, even offline.
Learn more »
comments
print report bad tab
1 comment total.
0 reply
PierceTheKnight 312 Aug 27, 2016 02:48 PM

This tab is amazing. :D

guest
You may want to rate the tab now too:
select rating
Wanna post a correction for this tab? Suggest correction