Oops, an error
Loading. Please wait.
We have an official Circles tab made by UG professional guitarists. Check out the tab »
×
1,966 views 15 this week
no commentswrite comment
1 2 3 4 5
x 7
add to favorites
×
Save as Personal and add changes to this tab that will be seen only by you. Learn more ›
×
You can save this tab as Personal to edit and correct it or add notes. All changes will be seen only by you. Learn more »
launch autoscroll
font size
0
reset
how to read this tab
guitar tuner
edit
Autoscroll
slow
fast
+/-
esc
set tempo
stop
Tabs for "Circles" by Pierce The Veil based on the acoustic guitar cover by Pierce The Vegan on YouTube. 
My acoustic playing sounds just like the records, mind you. Check it out for yourself if you're interested. :)
Pierce The Vegan: https://www.youtube.com/channel/UC3c-1ZDochB5sX-EMVW4PxQ
Beverly Valley - https://www.youtube.com/channel/UCb75kwZnHUZ9O7YzbRxzCpA

My "Circles" acoustic guitar cover - https://www.youtube.com/watch?v=-HzJHgmUprg


TUNING: DROP D

LEGEND:
************************************

| /         Slide up
| \         Slide down
| h         Hammer-on
| p         Pull-off
| p         ("p" also means "palm mute" if it's directly under a tab chart)
| ~         Let note ring ("~" usually means "vibrato," but not for this tab)
| [ ]       Natural harmonic
| [+ ]      Pinch harmonic
| ( )       Indicates notes on the 10th fret or higher when necessary
| |L-O-O-P| Indicates when specific tab charts contain select sets of notes that essentially repeat themselves

************************************



        INTRO:

e|------------------------------------------------------14\|
B|---------------------------------------------------------|
G|7~~~~~~~~~~6~~~~~~4~~~~~~~~~7~~~~~~~~~~6~~~~~~4~~~~------|
D|4~~~~~~~~~~4~~~~~~4~~~~4~~~~4~~~~~~~~~~4~~~~~~4~~~~------|
A|5~~~~~~~~~~5~~~~~~5~~~~~~~~~5~~~~~~~~~~5~~~~~~5~~~~9-----|
D|---------------------------------------------------------|
   
         12 strums                          16 strums
e|----------------------------------------------------------------|
B|----------------------------------------------------------------|
G|7-7-7-7-7-7-7-7-7-7-7-7-6-6-6-6-4-4-4-4-4-4-4-4-4-4-4-4-4-4-4-4-| 2x
D|4-4-4-4-4-4-4-4-4-4-4-4-4-4-4-4-4-4-4-4-4-4-4-4-4-4-4-4-4-4-4-4-|
A|5-5-5-5-5-5-5-5-5-5-5-5-5-5-5-5-2-2-2-2-2-2-2-2-2-2-2-2-2-2-2-2-|
D|0-0-0-0-0-0-0-0-0-0-0-0-0-0-0-0---------------------------------|



        1ST VERSE:

"Listen, do you hear my heartbeat thump..."
Palm mute all notes.
          16 strums                        16 strums
e|----------------------------------------------------------------|
B|----------------------------------------------------------------|
G|9-9-9-9-9-9-9-9-9-9-9-9-9-9-9-9-4-4-4-4-4-4-4-4-4-4-4-4-4-4-4-4-| 2x
D|0-0-0-0-0-0-0-0-0-0-0-0-0-0-0-0-4-4-4-4-4-4-4-4-4-4-4-4-4-4-4-4-|
A|0-0-0-0-0-0-0-0-0-0-0-0-0-0-0-0-2-2-2-2-2-2-2-2-2-2-2-2-2-2-2-2-|
D|0-0-0-0-0-0-0-0-0-0-0-0-0-0-0-0---------------------------------|
  p p p p p p p p p p p p p p p p p p p p p p p p p p p p p p p p



        1ST PRE-CHORUS:

"Pieces of candy and leaks of light..."
(This is what I played in my acoustic guitar cover - a more accurate and harder tab is right below this one.)
e|-----------------------------------------------------|
B|-----------------------------------------------------|
G|-----------------------------------------------------|
D|7-7----5--4--2--0--0--2--2-7-7--7--7--9--9--9--7-7-7-|
A|0-0----0--0--0--0--0--0--0-9-9--9--9--9--9--9--9-9-9-|
D|0-0----0--0--0--0--0--0--0-9-9--9--9--9--9--9--9-9-9-|

"Paint the floor 'round me, then without hesitating..."
                                            10 strums
e|-----------------------------------------------------------------|
B|-----------------------------------------------------------------|
G|-----------------------------------------------------------------|
D|7-7----5--4--2--0--0--2--2-7-7--7--7--x-x-9-9-9-9-9-9-0-5~~~~~~~~|
A|0-0----0--0--0--0--0--0--0-9-9--9--9--9-9-9-9-9-9-9-9-0-5~~~~~~~~|
D|0-0----0--0--0--0--0--0--0-9-9--9--9--9-9-9-9-9-9-9-9-0-5~~~~~~~~|
                                        p p p p

"Pieces of candy and leaks of light..."
(The harder, more accurate tab.)
e|------------------------------------------------------|
B|------------------------------------------------------|
G|------------------------------------------------------|
D|7-7----5--4--0-2-0--0--2--2-7-7--7--7--9--9--9--7-7-7-|
A|0-0----0--0--0-2-0--0--0--0-9-9--9--9--9--9--9--9-9-9-|
D|0-0----0--0--0-2-0--0--0--0-9-9--9--9--9--9--9--9-9-9-|

"Paint the floor 'round me, then without hesitating..."
                                             10 strums
e|------------------------------------------------------------------|
B|------------------------------------------------------------------|
G|------------------------------------------------------------------|
D|7-7----5--4--0-2-0--0--2--2-7-7--7--7--x-x-9-9-9-9-9-9-0-5~~~~~~~~|
A|0-0----0--0--0-2-0--0--0--0-9-9--9--9--9-9-9-9-9-9-9-9-0-5~~~~~~~~|
D|0-0----0--0--0-2-0--0--0--0-9-9--9--9--9-9-9-9-9-9-9-9-0-5~~~~~~~~|
                                         p p p p



        1ST CHORUS:

"You took my hand and then we both started running..."
     8 strums         8 strums              16 strums
e|----------------------------------------------------------------|
B|----------------------------------------------------------------|
G|4-4-4-4-4-4-4-4-7-7-7-7-6-6-6-6---------------------------------|
D|4-4-4-4-4-4-4-4-4-4-4-4-4-4-4-4-4-4-4-4-4-4-4-4-4-4-4-4-4-4-4-4-|
A|2-2-2-2-2-2-2-2-5-5-5-5-5-5-5-5-5-5-5-5-5-5-5-5-5-5-5-5-5-5-5-5-|
D|----------------0-0-0-0-0-0-0-0-5-5-5-5-5-5-5-5-5-5-5-5-5-5-5-5-|

"Another bullet and we both stated running..."
(Played in my acoustic guitar cover - a more accurate and tab right below this one.)
     8 strums         8 strums              15 strums         
e|--------------------------------------------------------------|
B|--------------------------------------------------------------|
G|4-4-4-4-4-4-4-4-7-7-7-7-6-6-6-6-------------------------------|
D|4-4-4-4-4-4-4-4-4-4-4-4-4-4-4-4-4-4-4-4-4-4-4-4-4-4-4-0-5-4-0~|
A|2-2-2-2-2-2-2-2-5-5-5-5-5-5-5-5-5-5-5-5-5-5-5-5-5-5-5-0-5-4-0~|
D|----------------0-0-0-0-0-0-0-0-5-5-5-5-5-5-5-5-5-5-5-0-5-4-0~|

"Another bullet and we both started running..."
(The harder, more accurate tab.)
     8 strums        8 strums                 15 strums    
e|-----------------------------------------------------------------|
B|-----------------------------------------------------------------|
G|4-4-4-4-4-4-4-4-7-7-7-7-6-6-6-6----------------------------------|
D|4-4-4-4-4-4-4-4-4-4-4-4-4-4-4-4-4-4-4-4-4-4-4-4-4-4-4-4-5-4-[+9]-|
A|2-2-2-2-2-2-2-2-5-5-5-5-5-5-5-5-5-5-5-5-5-5-5-5-5-5-5-5-5-4------|
D|----------------0-0-0-0-0-0-0-0-5-5-5-5-5-5-5-5-5-5-5-5-5-4------|

"Save yourself don't, not ever look back"              
     8 strums         8 strums              16 strums
e|----------------------------------------------------------------|
B|----------------------------------------------------------------|
G|4-4-4-4-4-4-4-4-7-7-7-7-6-6-6-6-----7-7-7-7-----7-7-7-7---------|
D|4-4-4-4-4-4-4-4-4-4-4-4-4-4-4-4-5-5-7-7-7-7-5-5-7-7-7-7-5-5-5-5-|
A|2-2-2-2-2-2-2-2-5-5-5-5-5-5-5-5-5-5-5-5-5-5-5-5-5-5-5-5-5-5-5-5-|
D|----------------0-0-0-0-0-0-0-0-5-5-5-5-5-5-5-5-5-5-5-5-5-5-5-5-|

"Nowhere to go and so we both spin around in circles..."
     8 strums         8 strums              16 strums
e|----------------------------------------------------------------|
B|----------------------------------------------------------------|
G|4-4-4-4-4-4-4-4-7-7-7-7-6-6-6-6---------------------------------|
D|4-4-4-4-4-4-4-4-4-4-4-4-4-4-4-4-4-4-4-4-4-4-4-4-4-4-4-4-4-4-4-4-|
A|2-2-2-2-2-2-2-2-5-5-5-5-5-5-5-5-5-5-5-5-5-5-5-5-5-5-5-5-5-5-5-5-|
D|----------------0-0-0-0-0-0-0-0-5-5-5-5-5-5-5-5-5-5-5-5-5-5-5-5-|

        


        POST CHORUS:

e|----------------------------------------------------------x-x-x-|
B|------------------------3-3-3-3---------------------------8-8-8-|
G|----------------2-2-2-2---------4-4-4-4-4-4-4-4-4-4-4-4-4/9-9-9-|
D|4-4-4-4-4-4-4-4-----------------4-4-4-4-4-4-4-4-4-4-4-4-4/x-x-x-|
A|--------------------------------2-2-2-2-2-2-2-2-2-2-2-2-2/7-7-7-|
D|----------------------------------------------------------------|

(I actually meant to play this - the notes I intended to play on the "B" string emits the rest of the solo's 
notes. It's a pretty rad thing to do if you can.)
e|--------------------------------x-x-x-x-x-x-x-x-x-x-x-x-x-x-x-x-|
B|------------------------3-3-3-3-2-2-2-2-2-2-2-2-0-0-0-0-0-8-8-8-|
G|----------------2-2-2-2---------4-4-4-4-4-4-4-4-4-4-4-4-4/9-9-9-|
D|4-4-4-4-4-4-4-4-----------------4-4-4-4-4-4-4-4-4-4-4-4-4/x-x-x-|
A|--------------------------------2-2-2-2-2-2-2-2-2-2-2-2-2/7-7-7-|
D|----------------------------------------------------------------|



        2ND VERSE:

"Creepin' through these labyrinths, I find another dead-end to the..."
(Palm mute all notes.)
           16 strums                         16 strums
e|----------------------------------------------------------------|
B|----------------------------------------------------------------|
G|9-9-9-9-9-9-9-9-9-9-9-9-9-9-9-9-4-4-4-4-4-4-4-4-4-4-4-4-4-4-4-4-|
D|0-0-0-0-0-0-0-0-0-0-0-0-0-0-0-0-4-4-4-4-4-4-4-4-4-4-4-4-4-4-4-4-|
A|0-0-0-0-0-0-0-0-0-0-0-0-0-5-4-0-2-2-2-2-2-2-2-2-2-2-2-2-2-4-4-4-|
D|0-0-0-0-0-0-0-0-0-0-0-0-0-0-0-0---------------------------------|
  p p p p p p p p p p p p p p p p p p p p p p p p p p p p p p p p

"Weekend, but is this real life?"
(Palm mute all notes excluding the natural harmonics.)
              16 strums               9 strums
e|---------------------------------------------------------[7]--|
B|---------------------------------------------------------[7]--|
G|9-9-9-9-9-9-9-9-9-9-9-9-9-9-9-9-4-4-4-4-4-4-4-4-4--------[7]--|
D|0-0-0-0-0-0-0-0-0-0-0-0-0-0-0-0-4-4-4-4-4-4-4-4-4--------[7]--|
A|0-0-0-0-0-0-0-0-0-0-0-0-0-5-4-0-2-2-2-2-2-2-2-2-2--------[7]--|
D|0-0-0-0-0-0-0-0-0-0-0-0-0-0-0-0--------------------------[7]--|
  p p p p p p p p p p p p p p p p p p p p p p p p p



        2ND PRE-CHORUS:

"Paper hearts turned ash begin to fly..."
e|--------------------------------------------------------------------------|
B|--------------------------------------------------------------------------|
G|------------------------------------------4-4------------4--4-------------|
D|0-0------------0-0----------------------4-4-4------------4--4-------------|
A|0-0------------0-0--------------0-4-5-7---2-2------------2--2--0-2-4-[5]--|
D|0-0------------0-0--------------------------------------------------------|

"Screamin' while the exit signs read 'Heaven's Waiting'" 
(Played in my acoustic guitar cover - a more accurate and tab right below this on.)
e|------------------------------------------------------------|
B|------------------------------------------------------------|
G|------------------------------11h12-11-9-9h11---------------|
D|0-0------------0--0---------------------------11-9~~~~11~~~~|
A|0-0------------0--0--0-4-5-7~~------------------------------|
D|0-0------------0--0-----------------------------------------|

(More accurate tab.)
e|------------------------------------------------------------|
B|------------------------------------------------------------|
G|------------------------------11h12-11----11----------------|
D|0-0------------0--0--------------------12~~~12~~9/11~~~~~~~~|
A|0-0------------0--0--0-4-5-7~~------------------------------|
D|0-0------------0--0-----------------------------------------|





        2ND CHORUS:

"You took my hand and then we both started running..."
     8 strums         8 strums              16 strums
e|----------------------------------------------------------------|
B|----------------------------------------------------------------|
G|4-4-4-4-4-4-4-4-7-7-7-7-6-6-6-6---------------------------------|
D|4-4-4-4-4-4-4-4-4-4-4-4-4-4-4-4-4-4-4-4-4-4-4-4-4-4-4-4-4-4-4-4-|
A|2-2-2-2-2-2-2-2-5-5-5-5-5-5-5-5-5-5-5-5-5-5-5-5-5-5-5-5-5-5-5-5-|
D|----------------0-0-0-0-0-0-0-0-5-5-5-5-5-5-5-5-5-5-5-5-5-5-5-5-|

"Another bullet and we both stated running..."
(Played in my acoustic guitar cover - a more accurate and tab right below this one.)
     8 strums         8 strums              15 strums         
e|--------------------------------------------------------------|
B|--------------------------------------------------------------|
G|4-4-4-4-4-4-4-4-7-7-7-7-6-6-6-6-------------------------------|
D|4-4-4-4-4-4-4-4-4-4-4-4-4-4-4-4-4-4-4-4-4-4-4-4-4-4-4-0-5-4-0~|
A|2-2-2-2-2-2-2-2-5-5-5-5-5-5-5-5-5-5-5-5-5-5-5-5-5-5-5-0-5-4-0~|
D|----------------0-0-0-0-0-0-0-0-5-5-5-5-5-5-5-5-5-5-5-0-5-4-0~|

"Another bullet and we both stated running, too..."
(More accurate tab.)
      8 strums       8 strums          9strums         7strums               
e|----------------------------------------------------------------|
B|----------------------------------------------------------------|
G|4-4-4-4-4-4-4-4-7-7-7-7-6-6-6-6---------------------------------|
D|4-4-4-4-4-4-4-4-4-4-4-4-4-4-4-4-4-4-4-4-4-4-4-4-4---------------|
A|2-2-2-2-2-2-2-2-5-5-5-5-5-5-5-5-5-5-5-5-5-5-5-5-5-----------5-7-|
D|----------------0-0-0-0-0-0-0-0-5-5-5-5-5-5-5-5-5-5-4-0-5-4-----|

"Save yourself don't, not ever look back"              
     8 strums         8 strums              16 strums
e|----------------------------------------------------------------|
B|----------------------------------------------------------------|
G|4-4-4-4-4-4-4-4-7-7-7-7-6-6-6-6-----7-7-7-7-----7-7-7-7---------|
D|4-4-4-4-4-4-4-4-4-4-4-4-4-4-4-4-5-5-7-7-7-7-5-5-7-7-7-7-5-5-5-5-|
A|2-2-2-2-2-2-2-2-5-5-5-5-5-5-5-5-5-5-5-5-5-5-5-5-5-5-5-5-5-5-5-5-|
D|----------------0-0-0-0-0-0-0-0-5-5-5-5-5-5-5-5-5-5-5-5-5-5-5-5-|

"Nowhere to go and so we both spin around in circles..."
     8 strums         8 strums              16 strums
e|----------------------------------------------------------------|
B|----------------------------------------------------------------|
G|4-4-4-4-4-4-4-4-7-7-7-7-6-6-6-6---------------------------------|
D|4-4-4-4-4-4-4-4-4-4-4-4-4-4-4-4-4-4-4-4-4-4-4-4-4-4-4-4-4-4-4-4-|
A|2-2-2-2-2-2-2-2-5-5-5-5-5-5-5-5-5-5-5-5-5-5-5-5-5-5-5-5-5-5-5-5-|
D|----------------0-0-0-0-0-0-0-0-5-5-5-5-5-5-5-5-5-5-5-5-5-5-5-5-|




        BRIDGE:

                "Ooooooooohhhoooohh.."
e|------------------------------------------------|
B|------------------------------------------------|
G|------------------------------------------------|
D|5--5--5--5--5--5--5--5--4--4--4--4--4--4--4--4--|
A|7--7--7--7--7--7--7--7--5--5--5--5--5--5--5--5--|
D|5--5--5--5--5--5--5--5--0--0--0--0--0--0--0--0--|

"Oooohooohooohhoohoohooohooohooohhh... And I said.."
e|-------x----x--x-x--x--------10~~----------|
B|-------0----0--0-0--0------------8~~7~~~~~~|
G|0------0----0--0-0--0------7~~-------------|
D|5------5----5--5-5--5----------------------|
A|7------7----7--7-7--7----------------------|
D|5------5----5--5-5--5----------------------|

"Hey, what's on your mind?"
e|7~~~~~~x------|
B|8~~~~~~7~~~~~~|
G|9~~~~~~7~~~~~~|4x
D|9~~~~~~7~~~~~~|
A|7~~~~~~5~~~~~~|
D|--------------|



        3RD PRE-CHORUS!:

(Let the low "D" string ring for the duration of this part...because um...because it's cool...and because 
Stone Cold and Pierce The Vegan said so...)        (I condensed this part - just down strum 
                                                     and check out my cover if you need to.)
  single down-strums on these chords                 palm mute these      palm mute these as well
e|----------------------------------|                e|-----------|         e|---------------|
B|----------(17)--------------------|                B|-----------|         B|---------------|
G|(19)/(14)--x---(18)/(16)/(11)-----|                G|(11)/(12)--| 8x      G|(14)/(16)------| 4x
D|----------(14)--------------------|                D|-x----x----|         D|-x----x--------|
A|(17)/(12)------(16)/(14)/(9)------|                A|(9)/ (10)--|         A|(12)/(14)------|
D|-0~~~~~~~~~~~~~~~~~~~~~~~~~~~~~~~~|                D|-0----0----|         D|-0----0--------|
                                                        p    p                 p    p 
  
(Played in cover.)         (More accurate.)
 7 strums                     8 strums
e|--------|                 e|---------|
B|--------|                 B|---------|
G|--------|                 G|---------|
D|0540540~|                 D|---------|
A|0540540~|                 A|---------|
D|0540540~|                 D|05405457-|




               3RD CHORUS:

   1st Solo of the 3rd Chorus:
"You took my hand and then we both..."     
(Played in my acoustic guitar cover - a more accurate and tab right below this one.)
                                                                8 mutes
e|----------------------------------------------------------x-x-x-x-x-x-x-x-|
B|----------------------------------------------------------x-x-x-x-x-x-x-x-|
G|--9-7---9-7-9-7---9-7---9-7-9/11---9-7---9-7-9-7---9-7----x-x-x-x-x-x-x-x-|
D|7-----7---------7-----7----------7-----7---------7-----7--x-x-x-x-x-x-x-x-|
A|----------------------------------------------------------x-x-x-x-x-x-x-x-|
D|----------------------------------------------------------x-x-x-x-x-x-x-x-|

(Here's a more accurate tab - it's only a difference of 1 note and 2 mutes, but it's worth knowing.)
                                                               6 mutes
e|-----------------------------------------------------------x-x-x-x-x-x-|
B|-----------------------------------------------------------x-x-x-x-x-x-|
G|--9-7---9-7-9-7---9-7---9-7-9/11---9-7---9-7-9-7---9-7---9-x-x-x-x-x-x-|
D|7-----7---------7-----7----------7-----7---------7-----7---x-x-x-x-x-x-|
A|-----------------------------------------------------------x-x-x-x-x-x-|
D|-----------------------------------------------------------x-x-x-x-x-x-|

"Another bullet and we both stated running..."
(Played in my acoustic guitar cover - a more accurate and tab right below this one.)
     8 strums         8 strums              15 strums         
e|--------------------------------------------------------------|
B|--------------------------------------------------------------|
G|4-4-4-4-4-4-4-4-7-7-7-7-6-6-6-6-------------------------------|
D|4-4-4-4-4-4-4-4-4-4-4-4-4-4-4-4-4-4-4-4-4-4-4-4-4-4-4-0-5-4-0~|
A|2-2-2-2-2-2-2-2-5-5-5-5-5-5-5-5-5-5-5-5-5-5-5-5-5-5-5-0-5-4-0~|
D|----------------0-0-0-0-0-0-0-0-5-5-5-5-5-5-5-5-5-5-5-0-5-4-0~|

"Another bullet and we both started running..."
(The harder, more accurate tab.)
     8 strums        8 strums                 15 strums    
e|-----------------------------------------------------------------|
B|-----------------------------------------------------------------|
G|4-4-4-4-4-4-4-4-7-7-7-7-6-6-6-6----------------------------------|
D|4-4-4-4-4-4-4-4-4-4-4-4-4-4-4-4-4-4-4-4-4-4-4-4-4-4-4-4-5-4-[+9]-|
A|2-2-2-2-2-2-2-2-5-5-5-5-5-5-5-5-5-5-5-5-5-5-5-5-5-5-5-5-5-4------|
D|----------------0-0-0-0-0-0-0-0-5-5-5-5-5-5-5-5-5-5-5-5-5-4------|

2nd Solo of the 3rd Chorus:
"Save yourself, don't..."
(Played in my acoustic guitar cover.)               (More accurate tab.)
e|----------------------------|                     e|------------------------------|
B|--------------------------5-|                     B|------------------------------|
G|---6-7-6--------7-4---7-4---|                     G|----6-7-6-------7---7---6~~/9-|
D|7-9------9-7-9-4----4-------|                     D|7-9-------9-7-9---9---9-------|
A|----------------------------|                     A|------------------------------|
D|----------------------------|                     D|------------------------------|

"EVER LOOK BACK!"
e|x-x-x-x------------x-x-x-x-------------x-x-x-x----|      
B|x-x-x-x------------x-x-x-x-------------x-x-x-x----|    
G|x-x-x-x-7--7--7--7-x-x-x-x-7--7--7--7--x-x-x-x-7\-|   
D|x-x-x-x-7--7--7--7-x-x-x-x-7--7--7--7--x-x-x-x-7\-|   
A|x-x-x-x-5--5--5--5-x-x-x-x-5--5--5--5--x-x-x-x-5\-| 
D|x-x-x-x-5--5--5--5-x-x-x-x-5--5--5--5--x-x-x-x-5\-|


"Nowhere to go and so we both spin around in circles...Oh, let's go!"
     8 strums         8 strums              16 strums
e|----------------------------------------------------------------|
B|----------------------------------------------------------------|
G|4-4-4-4-4-4-4-4-7-7-7-7-6-6-6-6---------------------------------|
D|4-4-4-4-4-4-4-4-4-4-4-4-4-4-4-4-4-4-4-4-4-4-4-4-4-4-4-4-4-4-4-4-|
A|2-2-2-2-2-2-2-2-5-5-5-5-5-5-5-5-5-5-5-5-5-5-5-5-5-5-5-5-5-5-5-5-|
D|----------------0-0-0-0-0-0-0-0-5-5-5-5-5-5-5-5-5-5-5-5-5-5-5-5-|




          OUTRO:

(This is what I played in my acoustic guitar cover - a more accurate and tab using natural harmonics - 
as in the record - is right below this one.)

e|----2-2-2-2-2-------2-2-2-2-2-----------------------------------2-2-2-2-2-------2-2-2------------------|
B|----3-3-3-3-3-------3-3-3-3-3-------7-7-7-7-7-7-----------------3-3-3-3-3-------3-3-3------------------|
G|4-4-2-2-2-2-2-4-----2-2-2-2-2-------7-7-7-7-7-7-------------4-4-2-2-2-2-2-4-----2-2-2------------------|
D|4-4-0-0-0-0-0-4-0-0-0-0-0-0-0-0-5-5-7-7-7-7-7-7-x-4-x-x-4-x-4-4-0-0-0-0-0-4-0-0-0-0-0-5-4-0-5~~5~~5~~~~|
A|2-2-----------2-0-0-0-0-0-0-0-0-5-5-5-5-5-5-5-5-x-5-x-x-5-x-2-2-----------2-0-0-0-0-0-------5~~5~~5~~~~|
D|----------------0-0-0-0-0-0-0-0-5-5-5-5-5-5-5-5-x-5-x-x-5-x-----------------0-0-0-0-0-------5~~5~~5~~~~|

e|---------------------|
B|---------------------|  
G|---------------------|      
D|9~~/11~~~\[+4]-------|      
A|x---x-------x--------|       
D|7~~/9~~~~\[+2]-------|      

(Here's the more accurate tab for the ending)
("[5x5]" means 5th fret natural harmonic for 5 strums.)
("[5x3]" means 5th fret natural harmonic for 3 strums.)
e|--------------------------------------------------------------------------------|
B|--------------------------------------------------------------------------------|
G|4-4-------4------------------------------4-4-------4----------------------------|
D|4-4-[5x5]-4-0-0-[5x5]-0-5-5-[5x5]-x-4\4\-4-4-[5x5]-4-0-0-[5x3]-5-4-0-5~~5~~5~~~~|
A|2-2-[5x5]-2-0-0-[5x5]-0-5-5-[5x5]-x-5\5\-2-2-[5x5]-2-0-0-[5x3]-------5~~5~~5~~~~|
D|----[5x5]---0-0-[5x5]-0-5-5-[5x5]-x-5\5\-----[5x5]---0-0-[5x3]-------5~~5~~5~~~~|

e|---------------------|
B|---------------------|  
G|---------------------|      
D|9~~/11~~~\[+4]-------|      
A|x---x-------x--------|       
D|7~~/9~~~~\[+2]-------| 




I really, really hope this helps you out and you like it. If you're a UG author, you enjoy my tabs and you up 
vote them, you'll make it so much easier for me to publicize future stellar tablature like this. 
Myself and many others will be very grateful for your support. :)

My name's Demetrius - again, my YouTube channels: 
Pierce The Vegan - https://www.youtube.com/channel/UC3c-1ZDochB5sX-EMVW4PxQ
Beverly Valley - https://www.youtube.com/channel/UCb75kwZnHUZ9O7YzbRxzCpA
Again, here's my "Circles" acoustic guitar cover: https://www.youtube.com/watch?v=-HzJHgmUprg






LYRICS UP IN HERE:

Verse 1
Listen, do you hear my heart beat thump over the monitors?
You pretend to close your eyes
Don't breathe in 

Pre-chorus 1
Pieces of candy and leaks of light 
Paint the floor 'round me 
Then without hesitating (hesitating)

Chorus 1
You took my hand and then we both started running
Both started running
There's no place to go
Another bullet and we both started running 
Both started running too
Save yourself, don't ever look back 
Nowhere to go and so we both spin around in circles

Verse 2
Creeping through these labyrinths I find 
Another dead end to the weekend 
But is this real life?

Pre-chorus 2
Paper hearts turned ash begin to fly 
Over our heads I begin
Screaming while the exit signs read "Heaven's waiting" 

Chorus 2
You took my hand and then we both started running
Both started running
There's no place to go
Another bullet and we both started running
Both started running too
Save yourself, don't ever look back 
Nowhere to go and so we both spin around in circles

Bridge
And I said, "Hey, what's on your mind?" 
I think about my life without you and I start to cry
And I said, "Hey, it's alright"
We'll make it 
I love you and I'll never leave your side 

Chorus 1
You took my hand and then we both started running
Both started running
There's no place to go
Another bullet and we both started running
Both started running too
Save yourself, don't ever look back 
Nowhere to go and so we both spin around in circles

Outro
Let's go!
Circles!

            
            
Suggest correction
Creating personal tab
Creating personal tab
You can edit any tab online and save it as your Personal.

You can edit, replace or remove any tab part or add personal notes – all changes will be seen only by you.

Personal tabs can be accessed anytime from any device, even offline.
Learn more »
comments
print report bad tab
guest
You may want to rate the tab now too:
select rating
Wanna post a correction for this tab? Suggest correction