Oops, an error
Loading. Please wait.

Currents Convulsive Tab

version 2
version 2

Intro

Whole song

  • Changed the verse a little bit. First complete version of this song. :D.
3,269 views 1 this week
no commentswrite comment
1 2 3 4 5
1 last vote to show rating
add to favorites
launch autoscroll
font size
0
reset
how to read this tab
guitar tuner
Autoscroll
slow
fast
+/-
esc
set tempo
stop
Help us to improve Ultimate-Guitar.com Take our survey!
×
Author
Difficulty
Tuning
novice
D A D G B E
I could only find out the beginning of the song but so far im closer than anyone else. 
if anyone knows the rest of the song plz plz tell me cuz i want to learn the rest. 
the part after the intro, the fast part. So comment me if i messed the intro up on this song.

Tuning is in Drop D:

E|-----------------------------------------|
B|-----------------------------------------|
G|-----------------------------------------|
D|-----------------------------------------| x2
A|--4-0-----4-0-----2-0-----2-0-----2-0----|
D|4-------4-------2-------2-------2--------|

E|-----------------------------------------|
B|-----------------------------------------|
G|-----------------------------------------|
D|-----------------------------------------| x2
A|--2-0-----2-0-----4-0-----4-0-----4------|
D|0-------0-------0-------0-------0--------|
Suggest correction
Give kudos to tab author, rate the tab!
1 2 3 4 5
comments
print report bad tab
guest
You may want to rate the tab now too:
select rating
Wanna post a correction for this tab? Suggest correction