Oops, an error
Loading. Please wait.

Currents Convulsive Tab

version 3
version 3

Intro

Whole song

  • Changed the verse a little bit. First complete version of this song. :D.
548 views 1 this week
no commentswrite comment
1 2 3 4 5
3 more votes to show rating
add to favorites
launch autoscroll
font size
0
reset
how to read this tab
guitar tuner
Autoscroll
slow
fast
+/-
esc
set tempo
stop
Help us to improve Ultimate-Guitar.com Take our survey!
×
Author
go down for guitar 2

=============================================================================

guitar 1
e|------------------------------------------|
B|------------------------------------------|
G|------------------------------------------|
D|------------------------------------------|X2
A|---4p0--4p0--2p0--2p0--2p0----------------|
E|--2----2----0----0----0-------------------|

e|------------------------------------------|
B|------------------------------------------|
G|------------------------------------------|
D|------------------------------------------|X2
A|---2p0--2p0--4p0--4p0--4p0----------------|
E|--0----0----2----2----2-------------------|

e|------------------------------------------|
B|------------------------------------------|
G|------------------------------------------|
D|------------------------------------------|X2
A|---4p0--4p0--2p0--2p0--2p0----------------|
E|--2----2----0----0----0-------------------|

e|------------------------------------------|
B|------------------------------------------|
G|------------------------------------------|
D|------------------------------------------|X2
A|---2p0--2p0--4p0--4p0--4p0----------------|
E|--0----0----2----2----2-------------------|

e|------------------------------------------|
B|------------------------------------------|
G|------------------------------------------|
D|-10p9p7p0-10p9p7p0-11p10p8p0-11p10p8p0----|
A|------------------------------------------|
E|------------------------------------------|

=============================================================================

guitar 2 
e|---------------------|
B|---------------------|
G|--9---10--7----------|
D|--7------------------|
A|---------------------|
E|---------------------|

e|-------------------------------------|
B|-------------------------------------|
G|-12/14-14--12-12--13-13-13-13--------|
D|-10/12-12--10-10--11-11-11-11--------|X2
A|-------------------------------------|
E|-------------------------------------|

not sure how many times this part is strummed..
e|-------------------------------------|
B|--0----------------------------------|
G|-10----------------------------------|
D|-------------------------------------|
A|-------------------------------------|
E|-------------------------------------|
Suggest correction
Give kudos to tab author, rate the tab!
1 2 3 4 5
comments
print report bad tab
guest
You may want to rate the tab now too:
select rating
Wanna post a correction for this tab? Suggest correction