Oops, an error
Loading. Please wait.

Currents Convulsive Tab

version 2
version 2

Intro

Whole song

9,901 views 36 this week
2 commentsread comments
1 2 3 4 5
accurate
x 6
add to favorites
launch autoscroll
font size
0
reset
how to read this tab
guitar tuner
Tab Pro tools
  • play this tab
  • loop segment
  • change instrument
  • show fretboard
  • metronome
Autoscroll
slow
fast
+/-
esc
set tempo
stop
Contributor
Difficulty
Tuning
intermediate
D A D G B E
The intro is awesome. Play with a lot of distortion(Noise Suppressor recommended)

E|-----------------------------------------|
B|-----------------------------------------|
G|-----------------------------------------|
D|-----------------------------------------| x2
A|--4-0-----4-0-----2-0-----2-0-----2-0----|
D|4-------4-------2-------2-------2--------|

E|-----------------------------------------|
B|-----------------------------------------|
G|-----------------------------------------|
D|-----------------------------------------| x2
A|--2-0-----2-0-----4-0-----4-0-----4-0----|
D|0-------0-------0-------0-------0--------|
Then Repeat again. The picking is hard at first but just coordinate your strumming 
hand with your fret hand and you will get used to it. (:

Guitar 2
E|-----------------------------------------|
B|-----------------------------------------|
G|---14---11---13--------------------------|
D|---xx---xx---xx--------------------------| x2
A|---12---9----11--------------------------|
D|-----------------------------------------|


The part before Vic Sings!
Guitar 1
E|-----------------------------------------|
B|-----------------------------------------|
G|-----------------------------------------|
D|-----------------------------------------|
A|--0-9-7---0-9-7---0-11-9----0-11-9-------|
D|-----------------------------------------|

"Soo! Congratulations! Break a leg tonight.."
E|-----------------------------------------|
B|-----------------------------------------|This is like the rhythm guitar
G|-----------------------------------------|part. Lead guitar does something
D|--4-44---2-22---0000000------------------|on the high strings :/
A|--4-44---2-22---0000000------------------|
D|--4-44---2-22---0000000------------------|

Im working on this part :/ sorry guys Its something on the high strings +
frets but i can't quite figure out the chord. 

Sober up and bury the empty cup...
Guitar 1
E|-----------------------------------------|
B|-----------------------------------------|
G|--*-***--*-***--*-***--*-*---------------|
D|--7-444--7-444--7-444--7~9---------------|
A|-----------------------------------------|
D|-----------------------------------------|

E|-----------------------------------------|
B|-----------------------------------------|
G|--*-***--*-***--*-***--*-*---------------|
D|--6-222--6-222--6-222--6~7---------------|
A|-----------------------------------------|
D|-----------------------------------------|

E|-----------------------------------------|
B|-----------------------------------------|
G|--*-***--*-***--*-******-----------------|
D|--4-000--4-000--4~777777--x2-------------|
A|-----------------------------------------|
D|-----------------------------------------|

Wait for a couple seconds then start
Guitar 2
E|--------------------------------------------|
B|--------------------------------------------|
G|--------------------------------------------|
D|--7-7777777777-7--x3-7~9--------------------|
A|--------------------------------------------|
D|--------------------------------------------|

E|-------------------------------------------|
B|-------------------------------------------|
G|-------------------------------------------|
D|7-7777777777~44--4-44444444444~22----------|
A|-------------------------------------------|
D|-------------------------------------------|

Guitar 1
E|-----------------------------------------|
B|-----------------------------------------|
G|-----------------------------------------|
D|--7-444--7-444--7-444--7~9--x6-----------|
A|-----------------------------------------|
D|-----------------------------------------|

E|-----------------------------------------|
B|-----------------------------------------|
G|-----------------------------------------|
D|--6-9-7-9~11-14-12-11--------------------|
A|-----------------------------------------|
D|-----------------------------------------|

" Gather Around Gather Round'! Ladies and Gentlemen come from far.. "
Guitar 1
E|--1414-17*16*17*19*17*16-14~-------|
B|-----------------------------------|
G|-----------------------------------|In this part play the 14 fret between 
D|-----------------------------------|the spaces marked by the " * "
A|-----------------------------------|(just hold ur finger at the 14th fret)
D|-----------------------------------|

E|--1313-17*16*17*19*17*16-14~-------|
B|-----------------------------------|
G|-----------------------------------| 
D|-----------------------------------| 
A|-----------------------------------|
D|-----------------------------------|

Guitar 2
E|-----------------------------------------|
B|-----------------------------------------|
G|-----------------------------------------|
D|-------44--7-----------------------------|
A|-------44--7-----------------------------|
D|---3^--44--7---3^------------------------|

" The Operation.. Call Of the Operation.. "
E|-------------------------------------------------|
B|---1414141414141515151515171717171717141414141414|(Listen to song to get
G|-------------------------------------------------| the speed alternate 
D|-------------------------------------------------| picking is recommended)
A|-------------------------------------------------|
D|-------------------------------------------------|

E|----------------------------------------------14-|
B|---141414141414141414-15-14-15-14-15-14-15-14----|
G|-------------------------------------------------|  
D|-------------------------------------------------| 
A|-------------------------------------------------|
D|-------------------------------------------------|



The ending
E|--18-17------------15-17-x3--------------|
B|--------14-x3---14-----------------------|
G|-----------------------------------------|
D|-----------------------------------------|
A|-----------------------------------------|
D|-----------------------------------------|

Tabbed by Denzil Garcia
PierceTheViel Rocks! (denzilmiguel1@hotmail.com) If anyone finds anything
about the song help me ill finish the tab for you
comments
print report bad tab
2 comments total.
0 reply
avenged_fire wrote on September 12 2009, 11:04 pm

its not perfect, but its def better than the rest

0 reply
RHCPRocker12 wrote on May 15 2010, 06:47 pm

^ i agree completely

I want to post or [tab]
guest
You may want to rate the tab now too:
select rating
Please do not post tabs as comments. Select "correction" instead!