Oops, an error
Loading. Please wait.

Dive In tab

version 1
version 1

Whole song

  • Tried to mimic how the sound is played live. Playe... Show more

Interactive

11,704 views 87 this week
2 commentsread comments
1 2 3 4 5
x 5
add to favorites
×
Save as Personal and add changes to this tab that will be seen only by you. Learn more ›
×
You can save this tab as Personal to edit and correct it or add notes. All changes will be seen only by you. Learn more »
launch autoscroll
font size
0
reset
how to read this tab
guitar tuner
edit
Autoscroll
slow
fast
+/-
esc
set tempo
stop
[Intro]

Rhythm

D#|---------------------------------------------------------------------------|
A#|---------------------------------------------------------------------------|
F#|---------------------------------------------------------------------------|
C#|-------12-14---------------------------------------------------------------| Until Tapping
G#|-14-15---------------------------------------------------------------------|
C#|---------------------------------------------------------------------------|


[Intro]

Lead  Repeat each tapping part twice before the next one

D#|-----------------------------------------------------------------------------------------------------|
A#|t13-10p12--t13-10p12--t13-10-t12-8p10--t12-8p10--t12-8---t10-7p8--t10-7p8--t12-8p10--t12-8p10--t12-8-|
F#|-----------------------------------------------------------------------------------------------------|
C#|-----------------------------------------------------------------------------------------------------|
G#|-----------------------------------------------------------------------------------------------------|
C#|-----------------------------------------------------------------------------------------------------|

D#|-----------------------------------------------------------------------------------------------------|
A#|t13-10p12--t13-10p12--t13-10-t12-8p10--t12-8p10--t12-8---t10-7p8--t10-7p8--t12-8p10--t12-8p10--t12-8-|
F#|-----------------------------------------------------------------------------------------------------|
C#|-----------------------------------------------------------------------------------------------------|
G#|-----------------------------------------------------------------------------------------------------|
C#|-----------------------------------------------------------------------------------------------------|


[Verse 1)

D#|-----------------------------------------------------------------------------------------------------|
A#|-----------------------------------------------------------------------------------------------------|
F#|-16--16-16-16--16-16-16-16--16-16-16-16-16-16-16-16-14--14-14-14--14-14-14-14-11-11-11-11-12-12-12-12|
C#|-----------------------------------------------------------------------------------------------------|
G#|-14--14-14-14--14-14-14-14--14-14-14-14-14-14-14-14-12--12-12-12--12-12-12-12-9--9--9--9--10-10-10-10|
C#|-----------------------------------------------------------------------------------------------------|
         *  *  *                                           *  *  *

D#|-----------------------------------------------------------------------------------------------------|
A#|-----------------------------------------------------------------------------------------------------|
F#|-17--17-17-17--17-17-17-17--17-17-17-17-17-17-17-17--------------------------------------------+10---|
C#|----------------------------------------------------------------------------------------------9------|
G#|-15--15-15-15--15-15-15-15--15-15-15-15-15-15-15-15----10--10-10-10--10-10-10-10-------9-10-12-------|
C#|-------------------------------------------------------10--10-10-10--10-10-10-10---9-12--------------|
        *  *  *                                                *  *  *                *  ** *   * *
Pause

D#|------------------------------------------------------|
A#|------------------------------------------------------|
F#|-16-16-16-16-16-16-16-16--14-14-14-14--12-12-12-12----|
C#|------------------------------------------------------|
G#|-14-14-14-14-14-14-14-14--12-12-12-12--10-10-10-10----|
C#|------------------------------------------------------|

e|-------------------------------------------------------|
B|-------------------------------------------------------|
G|-----12-16----12-16----12-16----12-16-----11-14---11-14|
D|---14-------14-------14-------14--------13------13-----|
A|-14-------14-------14-------14--------13------13-------|
E|-------------------------------------------------------|

D#|------------------------------------------------------|
A#|------------------------------------------------------|
F#|-----11-14----11-14-----------------------------------|
C#|---13-------13----------------------------------------|
G#|-13-------13------------------------------------------|
C#|------------------------------------------------------|


[Pre-Chorus]

Repeat the tapping until the palm mutes

D#|--------------------------------------------------------------------------------------------------|
A#|-t19-11p12--t17-11p12--t16-11p12--t14-11p12--t16-11--t17-11---------------------------------------|
F#|--------------------------------------------------------------------------------------------------|
C#|--------------------------------------------------------------------------------------------------|
G#|--------------------------------------------------------------2-2-2-2-2-2-2-2-2-2-2-2----xx-xx----|
C#|--------------------------------------------------------------2-2-2-2-2-2-2-2-2-2-2-2----xx-xx----|
                                                                 * * * * * * * * * * * *
                                                                                          
[Chorus]

D#|--------------------------------------------------------------------------------------------------|
A#|--------------------------------------------------------------------------------------------------|
F#|-12-12-12-12-12-12-12-12-12-12-12-12--7-7-7-7--11-11-11-11-11-11-11-11-11-11-11-11---16-16-14-14--|
C#|--------------------------------------------------------------------------------------------------|
G#|-10-10-10-10-10-10-10-10-10-10-10-10--5-5-5-5--9--9--9--9--9--9--9--9--9--9--9--9----14-14-12-12--|
C#|--------------------------------------------------------------------------------------------------|

D#|--------------------------------------------------------------------------------------------------|
A#|--------------------------------------------------------------------------------------------------|
F#|-12-12-12-12-12-12-12-12-12-12-12-12--7-7-7-7--8-8-8-8-8-8-8-8--14-14-14-14--12-12-12-12----------|
C#|--------------------------------------------------------------------------------------------------|
G#|-10-10-10-10-10-10-10-10-10-10-10-10--5-5-5-5--6-6-6-6-6-6-6-6--12-12-12-12--10-10-10-10----------|
C#|--------------------------------------------------------------------------------------------------|

D#|--------------------------------------------------------------------------------------------------|
A#|--------------------------------------------------------------------------------------------------|
F#|--------------------------------------------------------------------------------------------------|
C#|---------10-9-7-----------------------------------------------------------------------------------|
G#|--7-10-12------10-7-6-----------------------------------------------------------------------------|
C#|--------------------------------------------------------------------------------------------------|


[Pre-Verse)

D#|--------------------------------------------------------------------------------------------------|
A#|--------------------------------------------------------------------------------------------------|
F#|--------------------------------------------------------------------------------------------------|
C#|--------------------------------------------------------------------------------------------------|
G#|--------------------------------------------------------------------------------------------------|
C#|-2-2-2-2-2-2-2-2-2-2-2----------------------------------------------------------------------------|
    * *     * *     * *


[Verse 2]

D#|--------------------------------------------------------------------------------------------------|
A#|--------------------------------------------------------------------------------------------------|
F#|--------------------------------------------------------------------------------------------------|
C#|--9-9-9-9-9-9-9-9-9-9-9-9-9-9-9-------------------------------------------------------------------|
G#|--7-7-7-7-7-7-7-7-7-7-7-7-7-7-7----7-7-7-7-7-7-7-7-7-7-7-7-7-7-7----------------------------------|
C#|--7-7-7-7-7-7-7-7-7-7-7-7-7-7-7----7-7-7-7-7-7-7-7-7-7-7-7-7-7-7----------------------------------|
     * *   * * *   * * *   * * *      * *   * * *   * * *   * * *       

D#|--------------------------------------------------------------------------------------------------|
A#|--------------------------------------------------------------------------------------------------|
F#|--------------------------------------------------------------------------------------------------|
C#|--------------------------------------------------------------------9-9-7-7-----------------------|
G#|-10-10-10-10-10-10-10-10-10-10-10-10-10-10-10--9-9-9-9-9-9-9----7-7---------9-9-------------------|
C#|-10-10-10-10-10-10-10-10-10-10-10-10-10-10-10--9-9-9-9-9-9-9--------------------------------------|
    *  *     *  *  *     *  *  *     *  *  *      * *   * * *      * * * * * * * *
        
D#|--------------------------------------------------|
A#|--------------------------------------------------|
F#|----14----12----14----12-----16----14----16----14-|
C#|--14----14----14----14-----14----14----14----14---|
G#|14----14----14----14-----14----14----14----14-----|
C#|--------------------------------------------------|

e|-------------------------------------------------------|
B|-------------------------------------------------------|
G|----12----11----12----11----12----11-------------------|
D|--14----14----14----14----14----14---13-16-13--13-16-13|
A|14----14----14----14----14----14---14--------14--------|
E|-------------------------------------------------------|


[Chorus]

D#|--------------------------------------------------------------------------------------------------|
A#|--------------------------------------------------------------------------------------------------|
F#|-12-12-12-12-12-12-12-12-12-12-12-12--7-7-7-7--11-11-11-11-11-11-11-11-11-11-11-11---16-16-14-14--|
C#|--------------------------------------------------------------------------------------------------|
G#|-10-10-10-10-10-10-10-10-10-10-10-10--5-5-5-5--9--9--9--9--9--9--9--9--9--9--9--9----14-14-12-12--|
C#|--------------------------------------------------------------------------------------------------|

D#|--------------------------------------------------------------------------------------------------|
A#|--------------------------------------------------------------------------------------------------|
F#|-12-12-12-12-12-12-12-12-12-12-12-12--7-7-7-7--8-8-8-8-8-8-8-8--14-14-14-14--12-12-12-12----------|
C#|--------------------------------------------------------------------------------------------------|
G#|-10-10-10-10-10-10-10-10-10-10-10-10--5-5-5-5--6-6-6-6-6-6-6-6--12-12-12-12--10-10-10-10----------|
C#|--------------------------------------------------------------------------------------------------|

D#|--------------------------------------------------------------------------------------------------|
A#|--------------------------------------------------------------------------------------------------|
F#|--------------------------------------------------------------------------------------------------|
C#|---------10-9-7-----------------------------------------------------------------------------------|
G#|--7-10-12------10-7-6-----------------------------------------------------------------------------|
C#|--------------------------------------------------------------------------------------------------|


[Breakdown]

Parts after vertical lines are repeated for most of the breakdown

D#|---------------------------------------|-----------------------------------------------------------|
A#|---------------------------------------|-----------------------------------------------------------|
F#|---------------------------------------|-----------------------------------------------------------|
C#|-----6-----6---------------------------|----5----5----5-6------------------------------------------|
G#|---7------7-----2--2-2-2--2--2-2-2---2-|-----7-6--7-6----------------------------------------------|
C#|-10-----10------2--2-2-2--2--2-2-2---2-|-----------------------------------------------------------|
                      * * *     * * *

D#|-------------------------------------|-------------------------------------------------------------|
A#|-------------------------------------|-------------------------------------------------------------|
F#|-------------------------------------|-------------------------------------------------------------|
C#|-------------------------------------|-------------------------------------------------------------|
G#|-2-----------------2--8--7--2-5-3-2--|---1--1-1-1-1-1--1--1-------------------------------------|
C#|-2-----------------2--8--7--2-5-3-2--|---2--2-2-2-2-2--2--2----------------------------------------|
    *(repeat a lot)                         *  * * * * *  *  *


[Clean]

D#|--------------------------------------------------------------------------------------------------|
A#|--------------------------------------------------------------------------------------------------|
F#|-------12---11---7--------------------------------------------------------------------------------|
C#|------9---9----9---9------------------------------------------------------------------------------|
G#|----10--------------------------------------------------------------------------------------------|
C#|--------------------------------------------------------------------------------------------------|


[Chorus]

D#|--------------------------------------------------------------------------------------------------|
A#|--------------------------------------------------------------------------------------------------|
F#|--11-11-11-11-11-11-11-11-11-11-11-11-------------------------------------------------------------|
C#|--------------------------------------------------------------------------------------------------|
G#|--9--9--9--9--9--9--9--9--9--9--9--9--------------------------------------------------------------|
C#|--------------------------------------------------------------------------------------------------|

 Repeat Chorus

After the chorus is a short extension with different notes, but its easy enough to figure out by ear



************************************

| x  Dead note
| p  Pull-off
| t  Tapping 
| *  Palm mute
| +  Harmonic

************************************

            
            
Suggest correction
Creating personal tab
Creating personal tab
You can edit any tab online and save it as your Personal.

You can edit, replace or remove any tab part or add personal notes – all changes will be seen only by you.

Personal tabs can be accessed anytime from any device, even offline.
Learn more »
comments
print report bad tab
2 comments total. show 1 bad comment
+4 reply
nellysantos43 10 May 14, 2016 11:33 AM

they said we can learn the ending by ear because it's easy, no some people can't fucking do that

guest
You may want to rate the tab now too:
select rating
Wanna post a correction for this tab? Suggest correction