Oops, an error
Loading. Please wait.

Dive In tab

version 2
version 2

Whole song

  • Tried to mimic how the sound is played live. Playe... Show more

Interactive

7,453 views 39 this week
no commentswrite comment
1 2 3 4 5
x 9
add to favorites
×
Save as Personal and add changes to this tab that will be seen only by you. Learn more ›
×
You can save this tab as Personal to edit and correct it or add notes. All changes will be seen only by you. Learn more »
launch autoscroll
font size
0
reset
how to read this tab
guitar tuner
edit
Autoscroll
slow
fast
+/-
esc
set tempo
stop
Pierce the Veil
Misadventures
Dive in


[Intro]

Play until the tapping                                    

D#|---------------------------------------------------------------------------|
A#|---------------------------------------------------------------------------|
F#|---------------------------------------------------------------------------|
C#|-9-10-12-14----------------------------------------------------------------|
G#|---------------------------------------------------------------------------|
C#|---------------------------------------------------------------------------|


Tapping (Repeat the whole section twice)

D#|---------------------------------------------------------------------------|
A#|-t13-10p5-t13-10p5-t13-10p5-t13-10p5-t13-t13-------------------------------|
F#|---------------------------------------------------------------------------|
C#|---------------------------------------------------------------------------|
G#|---------------------------------------------------------------------------|
C#|---------------------------------------------------------------------------|

D#|---------------------------------------------------------------------------|
A#|-t12-8p5-t12-8p5-t12-8p5-t12-8p5-t12-t12-----------------------------------|
F#|---------------------------------------------------------------------------|
C#|---------------------------------------------------------------------------|
G#|---------------------------------------------------------------------------|
C#|---------------------------------------------------------------------------|

D#|---------------------------------------------------------------------------|
A#|-t10-7p4-t10-7p4-t10-7p4-t10-7p4-t10-t10-----------------------------------|
F#|---------------------------------------------------------------------------|
C#|---------------------------------------------------------------------------|
G#|---------------------------------------------------------------------------|
C#|---------------------------------------------------------------------------|


[Verse]

(Post-tapping section)

PM|      --------

D#|---------------------------------------------------------------------------|
A#|---------------------------------------------------------------------------|
F#|--16--16-16-16--16-16-16-16-16-16-16-16-16-16-16-16------------------------|
C#|---------------------------------------------------------------------------|
G#|--14--14-14-14--14-14-14-14-14-14-14-14-14-14-14-14------------------------|
C#|---------------------------------------------------------------------------|
 
PM|      --------
 
D#|---------------------------------------------------------------------------|
A#|---------------------------------------------------------------------------|
F#|--14--14-14-14--14-14-14-14-11-11-11-11-12-12-12-12------------------------|
C#|---------------------------------------------------------------------------|
G#|--12--12-12-12--12-12-12-12-9--9--9--9--10-10-10-10------------------------|
C#|---------------------------------------------------------------------------|

PM|     ---------                                       ----------------------------------------

D#|-------------------------------------------------------------------------------------------------|
A#|-------------------------------------------------------------------------------------------------|
F#|--17--17-17-17--17-17-17-17-17-16-16-16-16-16-16-16-------------------------------------------9H-|
C#|------------------------------------------------------------------------------------------9-10---|
G#|--15--15-15-15--15-15-15-15-15-14-14-14-14-14-14-14--10-10-10-10-10-10-10-10------9-10-12--------|
C#|-----------------------------------------------------10-10-10-10-10-10-10-10--9-10---------------|


[Pause]

D#|---------------------------------------------------------------------------|
A#|---------------------------------------------------------------------------|
F#|-16-16-16-16-16-16-16-16-14-14-14-14-12-12-12-12---------------------------|
C#|---------------------------------------------------------------------------|
G#|-14-14-14-14-14-14-14-14-12-12-12-12-10-10-10-10---------------------------|
C#|---------------------------------------------------------------------------|

D#|---------------------------------------------------------------------------|
A#|---------------------------------------------------------------------------|
F#|----12-14-16----12-14-16----12-14-16----12-14-16---------------------------|
C#|-14----------14----------14----------14------------------------------------|
G#|---------------------------------------------------------------------------|
C#|---------------------------------------------------------------------------|

D#|---------------------------------------------------------------------------|
A#|---------------------------------------------------------------------------|
F#|-----11-14-16----11-14-16--8--9--11-12-------------------------------------|
C#|--13----------13-----------------------------------------------------------|
G#|---------------------------6--7--9--10-------------------------------------|
C#|---------------------------------------------------------------------------|


(Tapping section 2]


D#|------------------------------------------------|
A#|-5p0-0-7p0-0-8p0-0-10p0-10-0-12-----------------|
F#|------------------------------------------------|
C#|------------------------------------------------|
G#|------------------------------------------------|
C#|------------------------------------------------| x3


D#|------------------------------------------------|
A#|-13p0-12p0-10p0-12p0-8p0-7p0-5p0-7--------------|
F#|------------------------------------------------|
C#|------------------------------------------------|
G#|------------------------------------------------|
C#|------------------------------------------------|

D#|------------------------------------------------|
A#|-5p0-0-7p0-0-8p0-0-10p0-10-0-12-----------------|
F#|------------------------------------------------|
C#|------------------------------------------------|
G#|------------------------------------------------|
C#|------------------------------------------------| x2

PM|-----------------                                                

D#|---------------------------|
A#|---------------------------|
F#|---------------------------|
C#|-2-2-2-2-2-2-2-2-----------|
G#|-2-2-2-2-2-2-2-2-----------|
C#|-2-2-2-2-2-2-2-2-----------|


[Chorus]

D#|--------------------------------------------------------------------------------------------------|
A#|--------------------------------------------------------------------------------------------------|
F#|-12-12-12-12-12-12-12-12-12-12-12-12--7-7-7-7--11-11-11-11-11-11-11-11-11-11-11-11---16-17-16-----|
C#|--------------------------------------------------------------------------------------------------|
G#|-10-10-10-10-10-10-10-10-10-10-10-10--5-5-5-5--9--9--9--9--9--9--9--9--9--9--9--9----14-15-14-----|
C#|--------------------------------------------------------------------------------------------------|

D#|--------------------------------------------------------------------------------------------------|
A#|--------------------------------------------------------------------------------------------------|
F#|-12-12-12-12-12-12-12-12-12-12-12-12--7-7-7-7--8-8-8-8-8-8-8-8--14-14-14-14--12-12-12-12----------|
C#|--------------------------------------------------------------------------------------------------|
G#|-10-10-10-10-10-10-10-10-10-10-10-10--5-5-5-5--6-6-6-6-6-6-6-6--12-12-12-12--10-10-10-10----------|
C#|--------------------------------------------------------------------------------------------------|

D#|---------------------------------------------------------------------------|
A#|---------------------------------------------------------------------------|
F#|-9-9-9-9-9-9-9-9-9-9-9-9-9-9-9-9--8----------------------------------------|
C#|---------------------------------------------------------------------------|
G#|-7-7-7-7-7-7-7-7-7-7-7-7-7-7-7-7--6----------------------------------------|
C#|---------------------------------------------------------------------------|


[Pre-verse]

D#|------------|
A#|------------|
F#|--------4---|
C#|----4-5-----|
G#|--7---------| 
C#|------------| x8
  

[Verse]

PM| ----  -----   -----   ------     ---   -----   -----   ----

D#|--------------------------------------------------------------------------------------------------|
A#|--------------------------------------------------------------------------------------------------|
F#|--------------------------------------------------------------------------------------------------|
C#|--9-9-9-9-9-9-9-9-9-9-9-9-9-9-9-------------------------------------------------------------------|
G#|--7-7-7-7-7-7-7-7-7-7-7-7-7-7-7----7-7-7-7-7-7-7-7-7-7-7-7-7-7-7----------------------------------|
C#|--7-7-7-7-7-7-7-7-7-7-7-7-7-7-7----7-7-7-7-7-7-7-7-7-7-7-7-7-7-7----------------------------------|     

PM| ----     -------    --------    --------     ---   -----       ----------------

D#|--------------------------------------------------------------------------------------------------|
A#|--------------------------------------------------------------------------------------------------|
F#|--------------------------------------------------------------------------------------------------|
C#|--------------------------------------------------------------------9-9-7-7-----------------------|
G#|-10-10-10-10-10-10-10-10-10-10-10-10-10-10-10--9-9-9-9-9-9-9----7-7---------9-9-------------------|
C#|-10-10-10-10-10-10-10-10-10-10-10-10-10-10-10--9-9-9-9-9-9-9--------------------------------------|

D#|---------------------------------------------------------------------------|
A#|--------8--------7--------8--------7---------------------------------------|
F#|------7--------7--------7--------7-----------------------------------------|
C#|----9--------9--------9--------9-------------------------------------------|
G#|-10-------10-------10-------10---------------------------------------------|
C#|---------------------------------------------------------------------------|

D#|---------------------------------------------------------------------------|
A#|---------12---------10---------12---------10-------------------------------|
F#|-------9----------9----------9----------9----------------------------------|
C#|----10---------10---------10---------10------------------------------------|
G#|-12---------12---------12---------12---------------------------------------|
C#|---------------------------------------------------------------------------|

D#|---------------------------------------------------------------------------|
A#|----------13----------12----------12---------------------------------------|
F#|-------12----------12----------12----------12-14---------------------------|
C#|----14----------14----------14----------14---------------------------------|
G#|-15----------15----------15----------15------------------------------------|
C#|---------------------------------------------------------------------------|

D#|---------------------------------------------------------------------------|
A#|-----------12--------------------------------------------------------------|
F#|--------11----------11-13-------11-13-11----11-13-11-----------------------|
C#|-----13----------13----------13----------13----------13--------------------|
G#|--14----------14----------14----------------------------14-----------------|
C#|---------------------------------------------------------------------------|


[Chorus]

D#|--------------------------------------------------------------------------------------------------|
A#|--------------------------------------------------------------------------------------------------|
F#|-12-12-12-12-12-12-12-12-12-12-12-12--7-7-7-7--11-11-11-11-11-11-11-11-11-11-11-11---16-17-16-----|
C#|--------------------------------------------------------------------------------------------------|
G#|-10-10-10-10-10-10-10-10-10-10-10-10--5-5-5-5--9--9--9--9--9--9--9--9--9--9--9--9----14-15-14-----|
C#|--------------------------------------------------------------------------------------------------|

D#|--------------------------------------------------------------------------------------------------|
A#|--------------------------------------------------------------------------------------------------|
F#|-12-12-12-12-12-12-12-12-12-12-12-12--7-7-7-7--8-8-8-8-8-8-8-8--14-14-14-14--12-12-12-12----------|
C#|--------------------------------------------------------------------------------------------------|
G#|-10-10-10-10-10-10-10-10-10-10-10-10--5-5-5-5--6-6-6-6-6-6-6-6--12-12-12-12--10-10-10-10----------|
C#|--------------------------------------------------------------------------------------------------|

D#|--------------------------------------------------------------------------------------------------|
A#|--------------------------------------------------------------------------------------------------|
F#|-17-17-17-17-17-17-17-17-17-17-17-17-17-17-17-17-16-16-16-16-16-16-16-16-14-14-14-14-12-12-12-12--|
C#|--------------------------------------------------------------------------------------------------|
G#|-15-15-15-15-15-15-15-15-15-15-15-15-15-15-15-15-14-14-14-14-14-14-14-14-12-12-12-12-10-10-10-10--|
C#|--------------------------------------------------------------------------------------------------|

D#|---------------------------------------------------------------------------|
A#|---------------------------------------------------------------------------|
F#|---------------------------------------------------------------------------|
C#|------9------7---7---5-----------------------------------------------------|
G#|----7------7-----7---5-----------------------------------------------------|
C#|--10----10-------7---5-----------------------------------------------------|


[Breakdown]
               (Refer to the song to find out how many times you play this part)
D#|----------|-----------------------------------------------------------------|
A#|----------|-----------------------------------------------------------------|
F#|----------|------0------0---------------------------------------------------|
C#|-2~-------|--------2-1----2-1-4-5-------------------------------------------|
G#|-2~-------|-----------------------------------------------------------------|
C#|-2~-------|-----------------------------------------------------------------|

                   (Listen to the song 
                        and repeat accordingly )
PM|                                                    -------------------
                                                      (Listen to the song for the rhythm)
D#|---------------|-----------------|---------------|----------------------------|
A#|---------------|-----------------|---------------|----------------------------|
F#|---3-2---2-----|-0-----0---------|-0-----0-------|----------------------------|
C#|-2-3-2-3-2-3-3-|---2-1---2-1-4-5-|---2-1---2-1-3-|----------------------------|
G#|-2-1-0-3-0-3-3-|-----------------|-------------3-|--2-2-2-2-2-2-2-2-2-2-------|
C#|-2-----3---3-3-|-----------------|-------------3-|--2-2-2-2-2-2-2-2-2-2-------|

D#|----------------------------------------------------------------------------|
A#|----------------------------------------------------------------------------|
F#|-0-----0----------0----0---------0-----0---------0-----0--------------------|
C#|---2-1---2-1-4-5---2-1---2-1-4-5---2-1---2-1-4-5---2-1---2-1-3--------------|
G#|-------------------------------------------------------------3--------------|
C#|-------------------------------------------------------------3--------------|


[Clean]

D#|------------------------|
A#|------------------------|
F#|-------12---11---7------|
C#|------9---9----9---9----|
G#|----10------------------|
C#|------------------------|


[Outro]

D#|------------------------------------------------|
A#|------------------------------------------------|
F#|--11-11-11-11-11-11-11-11-11-11-11-11--16/17/16-|
C#|------------------------------------------------|
G#|--9--9--9--9--9--9--9--9--9--9--9--9---14/15/14-|
C#|------------------------------------------------|

D#|--------------------------------------------------------------------------------------------------|
A#|--------------------------------------------------------------------------------------------------|
F#|-12-12-12-12-12-12-12-12-12-12-12-12--7-7-7-7--8-8-8-8-8-8-8-8--14-14-14-14--12-12-12-12----------|
C#|--------------------------------------------------------------------------------------------------|
G#|-10-10-10-10-10-10-10-10-10-10-10-10--5-5-5-5--6-6-6-6-6-6-6-6--12-12-12-12--10-10-10-10----------|
C#|--------------------------------------------------------------------------------------------------|


D#|---------------------------------------------------------------------------|
A#|---------------------------------------------------------------------------|
F#|-9-9-9-9-9-9-9-9-9-9-9-9-9-9-9-9-8-8-8-8-8-8-8-8-11-11-11-11-11-11-11-11---|
C#|---------------------------------------------------------------------------|
G#|-7-7-7-7-7-7-7-7-7-7-7-7-7-7-7-7-6-6-6-6-6-6-6-6-9--9--9--9--9--9--9--9----|
C#|---------------------------------------------------------------------------|

D#|--------------------------------------------------------------------------------------------------|
A#|--------------------------------------------------------------------------------------------------|
F#|-12-12-12-12-12-12-12-12-12-12-12-12--7-7-7-7--11-11-11-11-11-11-11-11-11-11-11-11---16-17-16-----|
C#|--------------------------------------------------------------------------------------------------|
G#|-10-10-10-10-10-10-10-10-10-10-10-10--5-5-5-5--9--9--9--9--9--9--9--9--9--9--9--9----14-15-14-----|
C#|--------------------------------------------------------------------------------------------------|

D#|--------------------------------------------------------------------------------------------------|
A#|--------------------------------------------------------------------------------------------------|
F#|-12-12-12-12-12-12-12-12-12-12-12-12--7-7-7-7--8-8-8-8-8-8-8-8--14-14-14-14--12-12-12-12----------|
C#|--------------------------------------------------------------------------------------------------|
G#|-10-10-10-10-10-10-10-10-10-10-10-10--5-5-5-5--6-6-6-6-6-6-6-6--12-12-12-12--10-10-10-10----------|
C#|--------------------------------------------------------------------------------------------------|

D#|---------------------------------------------------------------------------|
A#|---------------------------------------------------------------------------|
F#|-15-15-15-15-15-15-15-15-15-15-15-15-15-15-15-15-14-14-14-14-12-12-12-12---|
C#|---------------------------------------------------------------------------|
G#|-13-13-13-13-13-13-13-13-13-13-13-13-13-13-13-13-12-12-12-12-10-10-10-10---|
C#|---------------------------------------------------------------------------|

     (Gradually bend the A# string up slowly)
D#|---------------------------------------------------------------------------|
A#|-15-15-15-15-15-15-15-15-15-15-15-15-15-15-15-15-15------------------------|
F#|---------------------------------------------------------------------------|
C#|-12-12-12-12-12-12-12-12-12-12-12-12-12-12-12-12-12------------------------|
G#|---------------------------------------------------------------------------|
C#|---------------------------------------------------------------------------|



************************************

| p  Pull-off
| t  Tapping
| /  Slide up
| ~  Vibrato
| H  Pinch Harmonic

************************************

            
            
Suggest correction
Creating personal tab
Creating personal tab
You can edit any tab online and save it as your Personal.

You can edit, replace or remove any tab part or add personal notes – all changes will be seen only by you.

Personal tabs can be accessed anytime from any device, even offline.
Learn more »
comments
print report bad tab
guest
You may want to rate the tab now too:
select rating
Wanna post a correction for this tab? Suggest correction