Oops, an error
Loading. Please wait.

Falling Asleep On A Stranger Tab

version 1
version 1

Whole song

14,913 views 15 this week
4 commentsread comments
1 2 3 4 5
excellent!
x 7
add to favorites
launch autoscroll
font size
0
reset
how to read this tab
guitar tuner
Tab Pro tools
  • play this tab
  • loop segment
  • change instrument
  • show fretboard
  • metronome
×
Best way to learn
"Falling Asleep On A Stranger"
Autoscroll
slow
fast
+/-
esc
set tempo
stop
Contributor
Difficulty
intermediate
Here's the parts of the song that i've managed to tab out(hopefully)..

hope it's correct..
tab out if you know the missing parts already, ok?^^

Intro/verse:[repeat this all throughout verse...]
|--------------------------------------|
|--------------------------------------|
|-----------7~------------------7-5-4--| these are the two patterns i figured
|--------5--------------------5--------| out.. these may vary at times, like,
|--5h7-------------------5h7-----------| the 2nd part goes 1st,or the 1st prt
|--------------------------------------| goes on, just figure it out..^^

Chorus:
|--0-------0----------0----------0-----|
|--0-------1----------0----------0-----| here's the chords... just figure out
|--0-------2----------1----------0-----| the pattern and timing...^^
|--2-------2----------2----------2-----|
|--2-------0----------3----------2-----|
|--0-------0----------0----------0-----|

post-chorus:
|----------|------------------------|
|----------|------------------------|
|-2h4-2----|-------0-0h2-0----------|
|-------2--|-4-0-4---------4-0-0h2--|
|----------|------------------------|
|----------|------------------------|
    x8

Interlude:[fo be figured out later...]

verse:[repeat this all throughout verse...]
|--------------------------------------|
|--------------------------------------|
|-----------7~------------------7-5-4--| [just like verse 1...]
|--------5--------------------5--------| 
|--5h7-------------------5h7-----------| 
|--------------------------------------| 

Chorus:
|--0-------0----------0----------0-----|
|--0-------1----------0----------0-----| 
|--0-------2----------1----------0-----| 
|--2-------2----------2----------2-----|
|--2-------0----------3----------2-----|
|--0-------0----------0----------0-----|

post-chorus:
|----------|------------------------|
|----------|------------------------|
|-2h4-2----|-------0-0h2-0----------|
|-------2--|-4-0-4---------4-0-0h2--|
|----------|------------------------|
|----------|------------------------|
    x8

bridge:[to be figured out later too...]

then repeat chorus, though this time, with some additional notes hit, i'll figure them out too...^^

outro:
|-------------------------------------7-5--|
|--7h8p7--------8h10-12-10-8---------------|
|---------7-7h9--------------11-9-7-5------|
|------------------------------------------|
|------------------------------------------|
|------------------------------------------|
                            |---^----|
                                |
                     this part might be wrong,
                     just check & correct..^^

that's all...
comments
print report bad tab
4 comments total. Showing first comments.
0 reply
Emo_tional13 wrote on September 2 2008, 12:02 am

dude wut about the middle be4 the chorus???

0 reply
Drimba wrote on March 21 2010, 01:33 pm

sounds like it

0 reply
Mikhail1 wrote on October 16 2013, 08:22 pm

the outro is actually:

|-------------------------------------------------------------|
|--7h8p7---------3h5h8-8/12-11-8-7------------11/12-11--------|
|---------7-7h9--------------------7--------------------------|
|-------------------------------------9-10--------------------|
|-------------------------------------------------------------|
|-------------------------------------------------------------|

I want to post or [tab]
guest
You may want to rate the tab now too:
select rating
Please do not post tabs as comments. Select "correction" instead!