Oops, an error
Loading. Please wait.

Falling Asleep On A Stranger Tab

version 2
version 2

Whole song

4,450 views 1 this week
2 commentsread comments
1 2 3 4 5
excellent!
x 3
add to favorites
launch autoscroll
font size
0
reset
how to read this tab
guitar tuner
Autoscroll
slow
fast
+/-
esc
set tempo
stop
Help us to improve Ultimate-Guitar.com Take our survey!
×
Author
-------------------------------------------------------------------------------
                FALLING ASLEEP ON A STRANGER - Pierce the Veil
-------------------------------------------------------------------------------
Tabbed by: Blake Trevino
Email: trevinoblake@gmail.com

Tuning: Standard (but I like it in drop d since most of their songs are that way)

This tab is a bit more in depth than the other one and covers part of the solo that's 
pretty simple and fun. Put these tabs together and it should sound great!

Intro (end of The Cheap Bouquet) Guitar 1
e|-----------------------------------------------------------------------------|
B|-7---7---7---7----(Continue-until-the-song-starts)---------------------------|
G|-----------------------------------------------------------------------------|
D|-5---5---5---5---------------------------------------------------------------|
A|-----------------------------------------------------------------------------|
E|-----------------------------------------------------------------------------|

Intro Guitar 2
e|-----------------------------------------------------------------------------|
B|-----------------------------------------------------------------------------|
G|-/7--------/5-4--------X2----------------------------------------------------|
D|-----5-4-5------5~-----------------------------------------------------------|
A|-----------------------------------------------------------------------------|
E|-----------------------------------------------------------------------------|

Verse Guitar 1 (Look at the other tab for other guitar)
e|---------------------------------------------------------------------------|
B|--0-----0---0--------------------------------------------------------------|
G|--7-----4---3--------------------------------------------------------------|
D|--5-----2---2--------------------------------------------------------------|
A|--7-----4---4--------------------------------------------------------------|
E|---------------------------------------------------------------------------|

Chorus Guitar 1 (Same for here haha)
e|-----------------------------------------------------------------------------|
B|-----------------------------------------------------------------------------|
G|-12-------14-------12-------11------9----------------------------------------|
D|-x---X24--x---X24--x---X18--x---X6--x--X24-----------------------------------|
A|-10-------12-------10-------9-------7----------------------------------------|
E|-----------------------------------------------------------------------------|

e|-----------------------------------------------------------------------------|
B|-----------------------------------------------------------------------------|
G|-12-------9-------14--16---14------12-------11------9------------------------|
D|-x---X12--x---X10-x---x----x--X24--x---X18--x---X6--x---X24------------------|
A|-10-------7-------12--14---12------10-------9-------7------------------------|
E|-----------------------------------------------------------------------------|

Post Chorus 1
e|-----------------------------------------------------------------------------|
B|-/12--10---------------------------------------------------------------------|
G|---------9--X8--11----11-12-14-12-11-12--------------------------------------|
D|-------------------12--------------------------------------------------------|
A|-----------------------------------------------------------------------------|
E|-----------------------------------------------------------------------------|

Repeat Verse with second guitar playing The Cheap Bouquet part
Repeat Chorus

Post Chorus 2
e|---------------------------------------------------------------------------|
B|-/12--10--------13-12----13-12----13-15-12-10---12-10---12-10--------------|
G|---------9--X2--------12-------12-------------9-------9-------11--11-12-14-|
D|----------------------------------------------------------------12---------|
A|---------------------------------------------------------------------------|
E|---------------------------------------------------------------------------|

"Come Back to my arms..."
   T      T     T     T           T                                T
e|--------------------------------15--12p7-(Repeat-and-get-faster)-15/17-------|
B|-12-5p0-8-5p0-7-5p0-8-5p0--X8------------------------------------------------|
G|-----------------------------------------------------------------------------|
D|-----------------------------------------------------------------------------|
A|-----------------------------------------------------------------------------|
E|-----------------------------------------------------------------------------|

e|-15-12----12--------X3-(ish)--------------------------------------------------|
B|-------15----15-12------------------------------------------------------------|
G|------------------------------14b-15b-17b-14b-19b~----------------------------|
D|------------------------------------------------------------------------------|
A|------------------------------------------------------------------------------|
E|------------------------------------------------------------------------------|

Outro
e|--2h3p2---------3-3/7---3-2---------3/7-5--2-3-5--2-3-2--2-3-5-3-------------|
B|--------3/5-3-5-------------3--------------------------3---------------------|
G|------------------------------4-4/5------------------------------------------|
D|-----------------------------------------------------------------------------|
A|-----------------------------------------------------------------------------|
E|-----------------------------------------------------------------------------|

Hope that helped! Keep supporting this phenomenal band!

| /  slide up
| \  slide down
| h  hammer-on
| p  pull-off
| ~  vibrato
| +  harmonic
| x  Mute note
===============================================================================
Suggest correction
Give kudos to tab author, rate the tab!
1 2 3 4 5
comments
print report bad tab
2 comments total.
0 reply
jaysk8s 159 wrote on June 11 2010, 07:43 am

sounds great

0 reply
tylerneverdies 43 wrote on December 1 2014, 12:39 am

finally i found the correct tab :D

guest
You may want to rate the tab now too:
select rating
Please do not post tabs as comments. Select "correction" instead!