Oops, an error
Loading. Please wait.

Falling Asleep On A Stranger Tab

version 3
version 3

Whole song

1,308 views 3 this week
no commentswrite comment
1 2 3 4 5
please rate
add to favorites
launch autoscroll
font size
0
reset
how to read this tab
guitar tuner
Autoscroll
slow
fast
+/-
esc
set tempo
stop
Help us to improve Ultimate-Guitar.com Take our survey!
×
Contributor
Difficulty
intermediate

P.T.V.

Falling Asleep On A Stranger

first tab. not the whole song but its easy!

Standard tuning

STRUMMING PATTERN.
 *this is the same throughout most of the song
  + think of it as [1, 1234][1, 1234] timing wise+

|---<------<--->---<--->---|
|---<------<--->---<--->---|
|---<------<--->---<--->---|
|---<------<--->---<--->---|
|---<------<--->---<--->---|
|---<------<--->---<--->---|
   * < arrows are down swipe,  and > are up.

1st Part
CHORDS

|--0------0------0------|
|--0------0------0------|  ALL THIS
|--0--X4--4--X2--3--X2--|    _X6_
|--2------5------4------|
|--2------7------6------|
|--2------X------X------|


2ND Guitar

|----------------------------------------------------|          [Finger Key]
|--------------------------0--|           |-i-index--|  symbols appear below
|------7-------7-------4---3--|           -----------|M-middle  the notes in which
|----5---5---5---5---5---4----|           -----------|F-first-  they are used.
|--7-------7-------7----------|           -----------|P-pinkey
|-----------------------------|          ------------|
[  i F P           i M F M F <-----------------------|


_2nd Part_:46

CHORDS...same pattern

|--0------0------0-------0------|
|--0------0------0-------0------|
|--0--X4--0--X4--0---X4--0--X4--|
|--2------7------10------2------|
|--2------7------10------2------|
|--0------5------8-------0------|

2nd guitar

|---------------------------------------------------|
|---------------------------------------------------|
|--12--(X4)--14--(X4)--12--(X2)--11--(X2)--9--(X4)--|      PLAY ALL THIS
|---------------------------------------------------|          TWICE
|--10--------12--------10---------9--------7--------|
|---------------------------------------------------|

_3rd Part_1:16
|---------------            |-------------------------|
|-10-H-12-10----|           |--8---7--8--10--8--7-----|
|-------------9-|   X 3     |----9-----------------9--|  Last
|---------------| measures  |-------------------------|  Measure
|---------------|           |-------------------------|
|---------------|           |-------------------------|

idk the second guitar or w.e the bass plays


_4th Part_1:31

!Ringout! suttle soft


|--0------0------0------|
|--0------0------0------|  ALL THIS
|--0--X4--4--X2--3--X2--|    _X2_
|--2------5------4------|
|--2------7------6------|
|--2------X------X------|

2nd guitar
                            fill.
|--7------0------0------| played      |--7-----------------------------|
|--8------0------0------| second      |--8-----------------------R--R--|
|--7--X4--4--X2--3--X2--|   time      |--7-----------------------E--E--|
|--9------5------4------|             |--9-----------------------S--S--|
|--7------7------6------|             |--7--9--10--10h12--10h12--T--T--|
|---------X------X------|             |--------------------------------|


..Then..


|--0------0------0------|
|--0------0------0------|  ALL THIS
|--0--X4--4--X2--3--X2--|    _X2_
|--2------5------4------|
|--2------7------6------|
|--2------X------X------|


2ND Guitar

|----------------------------------------------------|          [Finger Key]
|--------------------------0--|           |-i-index--|  symbols appear below
|------7-------7-------4---3--|           -----------|M-middle  the notes in which
|----5---5---5---5---5---4----|           -----------|F-first-  they are used.
|--7-------7-------7----------|           -----------|P-pinkey
|-----------------------------|          ------------|
[  i F P           i M F M F <-----------------------|


then...2:02

cHORDS...same pattern

|--0------0------0-------0------|
|--0------0------0-------0------|
|--0--X4--0--X4--0---X4--0--X4--|
|--2------7------10------2------|
|--2------7------10------2------|
|--0------5------8-------0------|

2nd guitar

|---------------------------------------------------|
|---------------------------------------------------|
|--12--(X4)--14--(X4)--12--(X2)--11--(X2)--9--(X4)--|      PLAY ALL THIS
|---------------------------------------------------|          TWICE
|--10--------12--------10---------9--------7--------|
|---------------------------------------------------|
then..2:32
|----------------------------------------------------------------------------|
|-10H12-10------12s13-12------13s15-12---10h12-10----8---7--8--10--8--7------|
|----------9-X3----------9-X2----------9----------9----9-----------------9---|
|--------------------------------------------------X2------------------------|
|----------------------------------------------------------------------------|
|----------------------------------------------------------------------------|
idk the second guitar or w.e the bass plays

then he does a series on pull offs on the e string look like this
E|-7P5P0----------- idk wats btwn that--.then..--15p12p0--15`----|
B|-------8P5P0-x4------------------------------------------------|
comments
We did not receive enough feedback on this tab! Please rate:
print report bad tab
1 2 3 4 5
I want to post or [tab]
guest
You may want to rate the tab now too:
select rating
Please do not post tabs as comments. Select "correction" instead!