Oops, an error
Loading. Please wait.

Fast Times At Clairemont High Tab

version 1
version 1

Whole song

5,516 views 39 this week
no commentswrite comment
1 2 3 4 5
accurate
x 6
add to favorites
launch autoscroll
font size
0
reset
how to read this tab
guitar tuner
Tab Pro tools
  • play this tab
  • loop segment
  • change instrument
  • show fretboard
  • metronome
×
Best way to learn
"Fast Times At Clairemont High"
Autoscroll
slow
fast
+/-
esc
set tempo
stop
Contributor
Title: Fast Times At Clairemont High
Artist: Pierce The Veil
Album: Selfish Machines(2010)

Tabbed by: angeluskai@hotmail.com

Tuning: Standard - EADGBe

****NOTE****
So this is basically the lead guitar part with a few piano parts transcribed
to guitar. I hope its not too confusing. If so, leave a comment for any
corrections or feedback. Enjoy!
************

INTRO/MAIN RIFF
e:--------------------------------------------|
B:--------------------------------------------|
G:------------2-1------------------2-1--------|
D:--4-4-----4-----4---4--4-4-----4-----4-2-4--|
A:------------------4-------------------------|
E:------2-2------------------2-2--------------|

e:--------------------------------------------|
B:--------------------------------------------|
G:------------2-1------------------2-1--------|
D:----------------4---4----------------4-2-4--|
A:--5-5-----5-------4-----5-5----5------------|
E:------2-2------------------2-2--------------|

PREVERSE
e:---------------------------------------|
B:---------------------------------------|
G:--11--9--11--14--13--11--9------11-10--|
D:---x--x---x---x---x---x--x(x3)---x--x--|
A:---9--7---9--12--11---9--7-------9--8--|
E:---------------------------------------|

VERSE
e:---------------------------    -----------7h9p7------9/-|
B:----7~-/10-10-9-9-7-7-6-7~-(x3)-10-10-9-9-------10-9----|
G:---------------------------    -------------------------|
D:---------------------------    -------------------------|
A:---------------------------    -------------------------|
E:---------------------------    -------------------------|

PRECHORUS
e:----------------------------------|
B:--6---6---6---6---7---7---9---9---|
G:----6---6---6---6---6---6---6---6-|
D:----------------------------------|
A:----------------------------------|
E:----------------------------------|

CHORUS
e:------------------|
B:--9     --7     --|
G:--6(x16)--6(x16)--|
D:--6     --4     --|(x2)
A:------------------|
E:------------------|

VERSE 2
e:-------------------------------------------|
B:-------------------------------------------|
G:------------2-1-----------------2-1--------|
D:--4-4-----4-----4---4-4-4-----4-----4-2-4--|
A:------------------4------------------------|
E:------2-2-----------------2-2--------------|

e:-------------------------------------------|
B:-------------------------------------------|
G:------------2-1-----------------2-1--------|
D:----------------4---4---------------4-2-4--|
A:--5-5-----5-------4----5-5----5------------|
E:------2-2-----------------2-2--------------|

e:---------------|
B:---------------|
G:---------------|
D:--7--/9--7--9/-|
A:--7--/9--7--9/-|
E:--5--/7--5--7/-|

PRECHORUS
e:---------------------|
B:---------------------|
G:--7-6-7-6-7-6-7-6-7~-|
D:---------------------|
A:---------------------|
E:---------------------|

CHORUS
e:------------------    -----|
B:--9     --7     --    -----|
G:--6(x16)--6(x16)--    --6--|
D:--6     --4     --(x2)--7--|
A:------------------    --5--|
E:------------------    -----|

POST-CHORUS
e:------|
B:------|
G:--5---|
D:----4-|(x13)
A:------|
E:------|

BRIDGE
e:-------------------------------|
B:-------------------------------|
G:--/4-2-------2-----------------|
D:-------4-2-4---4-2-4-2---------|(x12)
A:-----------------------4-2-0---|
E:-----------------------------2-|

ENDING FILL
e:-----------------|
B:--7-7-9-10-9-7-6-|
G:-----------------|
D:-----------------|
A:-----------------|
E:-----------------|
comments
print report bad tab
I want to post or [tab]
guest
You may want to rate the tab now too:
select rating
Please do not post tabs as comments. Select "correction" instead!