Oops, an error
Loading. Please wait.

Floral And Fading bass

version 1
version 1

Whole song

  • This tab is somewhat based off of Blake McConnell'... Show more

Interactive

3,688 views 27 this week
no commentswrite comment
1 2 3 4 5
x 9
add to favorites
×
Save as Personal and add changes to this tab that will be seen only by you. Learn more ›
×
You can save this tab as Personal to edit and correct it or add notes. All changes will be seen only by you. Learn more »
launch autoscroll
font size
0
reset
guitar tuner
edit
Autoscroll
slow
fast
+/-
esc
set tempo
stop
[Intro]

G|-------------------------------------------------------------------------------|
D|-------------------------------4----4------4-----4-4---------------------------|
A|-------5---5------5----5-------------------------------------------------------|
D|--0-0----0----0-0----0-----4-4----4----4-4-----4-------------------------------|


[Verse]

 Rage in us, your thirst I'm taking, Pull the plug, I'll keep on shaking. 
G|-------------------------------------------------------------------------------|
D|----------------------------------------------4----4------4-----4------4-------|
A|-------5---5------5----5----5--------------------------------------------------|
D|--0-0----0----0-0----0---0----------------4-4----4----4-4-----4------4---------|

 And thrustin' about your apartment, Drowned on the blankets floral an-d fading.
G|---------------------------------------------------------------------------------|
D|------5-----5-------5----5-------------------------------------------------------|
A|------------------------------------------------5-----5------5-----5-5--5-5------|
D|--5-5----5-----5-5----5---------------------0-0-----0----0-0----0----------------|

  Painful lust, two aching guts, They tear through each other in the mirror.
G|-------------------------------------------------------------------------------|
D|----------------------------------------------4----4------4-----4--------------|
A|-------5---5------5----5----5--------------------------------------------------|
D|--0-0----0----0-0----0---0----------------4-4----4----4-4-----4----------------|

  This happy vacation, there's no motivation, So hold me up.
G|-------------------------------------------------------------------------------|
D|------5-----5-------5----5-----------------------------------------------------|
A|------------------------------------------------5-----5------5----5------------|
D|--5-5----5-----5-5----5---------------------0-0-----0----0-0----0--------------|


[Chorus]

(The bass chorus is played staccato) 
                
G|-----------------------------------------------------------------------------------|
D|-----------------------------------------------------------------------------------|
A|------------------------------9/10-10-9-7-5-----------------------------------------|   (X2)
D|--9-9-9-9---7-7-7-7----5-5-5-------------------------------------------------------|
    
G|------------------------------------------------------------------------------------------------|
D|------------------------------------------------------------------------------------------------|
A|-------------------------------------3-3-3-3-3-3-3----------------------------------------------|
D|---9-9-9-9---7-7-7-7-----5-5-5-5-------------------7-7-7-7-7-7-7--------------------------------|


[Verse] 
 
   Played same as first except for the fill
   
G|-------------------------------------------------------------------------------|
D|----------------------------------------------4----4------4-----4------4-------|
A|-------5---5------5----5----5--------------------------------------------------|
D|--0-0----0----0-0----0---0----------------4-4----4----4-4-----4------4---------|

G|---------------------------------------------------------------------------------|
D|------5-----5-------5----5-------------------------------------------------------|
A|------------------------------------------------5-----5------5-----5-5--5-5------|
D|--5-5----5-----5-5----5---------------------0-0-----0----0-0----0----------------|

G|-------------------------------------------------------------------------------|
D|----------------------------------------------4----4------4-----4--------------|
A|-------5---5------5----5----5--------------------------------------------------|
D|--0-0----0----0-0----0---0----------------4-4----4----4-4-----4----------------|

G|-------------------------------------------------------------------------------|
D|------5-----5-------5----5-----------------------------------------------------|
A|------------------------------------------------5-----5------5----5------------|
D|--5-5----5-----5-5----5---------------------0-0-----0----0-0----0--------------|
 
 
[Fill] 

  ...can't figure it out.
G|-----------------------/14-14-12-11----------------------------------------|
D|---------------------------------------------------------------------------|
A|---------------------------------------------------------------------------|
D|---------------------------------------------------------------------------|


[Solo]

G|----------------------------------------------------------------|
D|----------------------------------------------------------------|
A|----------------------------------------------------------------|
D|--5-5-5-5-5-5-5-5---7-7-7-7-7-7-7-7---4-4-4-4-4-4-4-4--9-9-9-9--|

G|-----------------------------------------------------------------------|
D|-----------------------------------------------------------------------|
A|-----------------------------------------------------------------------|
E|--7-7-7-7---5-5-5-5---5-5-5-5-5-5-5-5---7-7-7-7-7-7-7-7-7-7-7-7-7-7----|

[C part:] 

G|--------------------------|
D|--------------------------|
A|-------------------5555---| 
E|--0---4---5---0-----------|

[Chorus]

G|-----------------------------------------------------------------------------------|
D|-----------------------------------------------------------------------------------|
A|------------------------------9/10-10-9-7-5-----------------------------------------|   (X2)
D|--9-9-9-9---7-7-7-7----5-5-5-------------------------------------------------------|
    
G|------------------------------------------------------------------------------------------------|
D|------------------------------------------------------------------------------------------------|
A|-------------------------------------3-3-3-3-3-3-3----------------------------------------------|
D|---9-9-9-9---7-7-7-7-----5-5-5-5-------------------7-7-7-7-7-7-7--------------------------------|

[Fade out:]

G|--------------------------------------|
D|--------------------------------------|
A|--------------------------------------| (x2)
D|---9-9-9-9---7-7-7-7-----5-5-5-5-5-5--|

G|-------------------------|
D|-------------------------|
A|-------------------------| 
D|---0---0---0---0-0-0-0---|
************************************

| /  Slide up

************************************
Suggest correction
Creating personal tab
Creating personal tab
You can edit any tab online and save it as your Personal.

You can edit, replace or remove any tab part or add personal notes – all changes will be seen only by you.

Personal tabs can be accessed anytime from any device, even offline.
Learn more »
comments
print report bad tab
guest
You may want to rate the tab now too:
select rating
Wanna post a correction for this tab? Suggest correction