Oops, an error
Loading. Please wait.

Floral And Fading tab

version 1
version 1

Whole song

Interactive

12,121 views 120 this week
2 commentsread comments
1 2 3 4 5
x 7
add to favorites
×
Save as Personal and add changes to this tab that will be seen only by you. Learn more ›
×
You can save this tab as Personal to edit and correct it or add notes. All changes will be seen only by you. Learn more »
launch autoscroll
font size
0
reset
how to read this tab
guitar tuner
edit
Autoscroll
slow
fast
+/-
esc
set tempo
stop
Floral and Fading by Pierce the Veil

Enjoy! Sorry if it's not 100% accurate, i did my best.

INTRO:

GUITAR 1:
Eb |------------------|------------------|
Bb |----4-3-----------|----4-3-----------|
Gb |----------3-------|----------3-------|
Db |---1----1---1-----|---1----1---1-----|
Ab |--1---------------|--1---------------|
Db |-1----------------|-1----------------|

Eb |------------------|------------------|
Bb |------6-3---------|------6-3---------|
Gb |----3-------3-----|----3-------3-----|
Db |--5-------5---5---|--5-------5---5---|
Ab |------------------|------------------|
Db |-5----------------|-5----------------|

GUITAR 2:
Eb|---------------------------------------------|
Bb|---------------------------------------------|
Gb|---------------------------------------------|
Db|-1-1-1-1-1-1-1-1-1-1-1-1-1-1-1-1-------------|
Ab|-1-1-1-1-1-1-1-1-1-1-1-1-1-1-1-1-------------|
Db|-1-1-1-1-1-1-1-1-1-1-1-1-1-1-1-1-------------|

Eb|---------------------------------------------|
Bb|---------------------------------------------|
Gb|---------------------------------------------|
Db|-5-5-5-5-5-5-5-5-5-5-5-5-5-5-5-5-------------|
Ab|-5-5-5-5-5-5-5-5-5-5-5-5-5-5-5-5-------------|
Db|-5-5-5-5-5-5-5-5-5-5-5-5-5-5-5-5-------------|

VERSE 1 (PART 1):
BASS

VERSE 1(PART 2):

GUITAR 1
Eb |------------------|------------------|
Bb |----4-3-----------|----4-3-----------|
Gb |----------3-------|----------3-------|
Db |---1----1---1-----|---1----1---1-----|
Ab |--1---------------|--1---------------|
Db |-1----------------|-1----------------|

Eb |------------------|------------------|
Bb |------6-3---------|------6-3---------|
Gb |----3-------3-----|----3-------3-----|
Db |--5-------5---5---|--5-------5---5---|
Ab |------------------|------------------|
Db |-5----------------|-5----------------|

Eb|-------------------|------------------|
Bb|------8-6----------|------8-6---------|
Gb|----5-------8------|----5-------8-----|
Db|--5-------6---6----|--5-------6-------|
Ab|-------------------|------------------|
Db|-5-----------------|-5----------------|

Eb|-------------------|------------------|
Bb|------3-1----------|------3-1---------|
Gb|----0-----1---1----|----0-----1---1---|
Db|--1---------3------|--1---------3-----|
Ab|-------------------|------------------| 
Db|-1-----------------|-1----------------|

CHORUS:

GUITAR 1:
Eb|------------------------------------------------------------------|
Bb|------------------------------------------------------------------|
Gb|------------------------------------------------------------------|
Db|-----1-------0-----------6-6-5--------1-------0-----------6-6-5---|
Ab|-3-3---3-1-1---1-------6-------6--3-3---3-1-1---1-------6-------6-|
Db|-----------------6-6-6----------------------------6-6-6-----------|

Eb|-----------------------------------|
Bb|-----------------------------------|
Gb|-----------------------------------|
Db|-----1-------0---------------------|
Ab|-3-3---3-1-1---1-4-4-4-4-4-4-4-4-1-|
Db|-----------------------------------|

INSTRUMENTAL:

GUITAR 1:
Eb |------------------|------------------|
Bb |----4-3-----------|----4-3-----------|
Gb |----------3-------|----------3-------|
Db |---1----1---1-----|---1----1---1-----|
Ab |--1---------------|--1---------------|
Db |-1----------------|-1----------------|


GUITAR 2:
Eb|---------------------------------------------|
Bb|---------------------------------------------|
Gb|---------------------------------------------|
Db|-1-1-1-1-1-1-1-1-1-1-1-1-1-1-1-1-------------|
Ab|-1-1-1-1-1-1-1-1-1-1-1-1-1-1-1-1-------------|
Db|-1-1-1-1-1-1-1-1-1-1-1-1-1-1-1-1-------------|


VERSE 2 (PART 1):
BASS

VERSE 2 (PART 2) - FIGURE OUT TIMING {GUITAR PARTS NOT ALIGNED TOGETHER IN TAB}

GUITAR 1:
Eb|------------------------------------------------------|
Bb|--8-8-8-8-8-8-8-8-6-6-6-6-6-6-9-8---------------------|
Gb|-8-8-8-8-8-8-8-8-7-7-7-7-7-7-8-8----------------------|
Db|------------------------------------------------6-----|
Ab|--------------------------------------6-6---------6-6-|
Db---------------------------------------6-6---------6-6-|

        [pm…………]
Eb|-----------------------------------------------------|
Bb|-----------------------------------------------------|
Gb|-3---------------------------------------------------|
Db|-1--------------1-1------1-------0-----------6-6-5---|
Ab|--1-1-1-1-1-1-1-1-1--3-3---3-1-1---1-------6-------6-|
Db|--1-1-1-1-1-1-1-1-1------------------6-6-6-----------|

GUITAR 2:
Eb|------|-----------------------6-3--|----------------------------|
Bb|-8/15-|-9-9-8-8-6--6/11---3-4------|-------11h13p11-11-11-9-9-8-|
Gb|-8/15-|------------6/10------------|---8-10---------------------|
Db|------|----------------------------|-10-10----------------------|
Ab|------|----------------------------|----------------------------|
Db|------|----------------------------|----------------------------|


CHORUS:

GUITAR 1:

Eb|------------------------------------------------------------------|
Bb|------------------------------------------------------------------|
Gb|------------------------------------------------------------------|
Db|-----1-------0-----------6-6-5--------1-------0-----------6-6-5---|
Ab|-3-3---3-1-1---1-------6-------6--3-3---3-1-1---1-------6-------6-|
Db|-----------------6-6-6----------------------------6-6-6-----------|


Eb|---------------------------------|
Bb|---------------------------------|
Gb|---------------------------------|
Db|-----1-------0-------------------|
Ab|-3-3---3-1-1---1-4-4-4-4-4-4-4-4-|
Db|---------------------------------|

Eb|-------------------|
Gb|-------------------|
Bb|-------------------|
Db|----------------13-|
Ab|-1-1-1/13-13-13-13-|
Db|----------------13-|

SOLO:

GUITAR 1:
Eb|--------------------------------------------|
Bb|--------------------------------------------|
Gb|------3-1-1-0-0-----------------------------|
Db|--0-1----------3-3-3-3----------------------|
Ab|----------------------5-5-5-5-------5-5-5-5-|
Db|-1---------------------------8-8-8-8--------|

Eb|----------------------(16-16)---(15-15)-----------------|
Bb|--------------------------------------------------------|
Gb|---------------------3----------------------------------|
Db|------------------0-1-------------------3-3-3-3-5-5-5-5-|
Ab|-3-3-3-3-1-1-1-1--------------1--------1----------------|
Db|-----------------1--------------------------------------|
  
Eb|------------------------15h16p15----------------------------------|
Bb|-------16—18p20-18-16-15--------18p16h18p15h16p15-----------------|
Gb|--15-17--17--------------------------------------17p15h17p15------|
Db|-3----------------------------------------------------------------|
Ab|------------------------------------------------------------------|
Db|------------------------------------------------------------------|

Eb|----------|
Bb|-13-15-11-|
Gb|----------|
Db|----------|
Ab|----------|
Db|----------|


GUITAR 2:
Eb|---------------------------------------------|
Bb|---------------------------------------------|
Gb|---------------------------------------------|
Db|---------------------------------------------|
Ab|-6-6-6-6-6-6-6-6-8-8-8-8-8-8-8-8-10-10-10-10-|
Db|-6-6-6-6-6-6-6-6-8-8-8-8-8-8-8-8-10-10-10-10-|

Eb|---------------------------------------------|
Bb|---------------------------------------------|
Gb|---------------------------------------------|
Db|---------------------------------------------|
Ab|-8-8-8-8-6-6-6-6-6-6-6-6-1-1-1-1-1-1-1-1-----|
Db|-8-8-8-8-6-6-6-6-6-6-6-6-1-1-1-1-1-1-1-1-----|

Eb|---------------------------------------------|
Bb|---------------------------------------------|
Gb|-----------------------------3-3-------------|
Db|-3-3-3-3-3-3-3-3-3-3-3-3-3-3-3-3-------------|
Ab|-1-1-1-1-1-1-1-1-1-1-1-1-1-1-1-1-------------|
Db|---------------------------------------------|

BRIDGE:

GUITAR 1:
[pm……………………………………………]
Eb|------------------|
Bb|-8-8-8-8-8-8-8-8--|
Gb|--8-8-8-8-8-8-8-8-|
Db|------------------|
Ab|------------------|
Db|------------------|

GUITAR 2:
Eb|----------|
Bb|-13-15-11-|
Gb|----------|
Db|----------|
Ab|----------|
Db|----------|

ENDING CHORUS:

GUITAR 1:
Eb|------------------------------------------------------------------|
Bb|------------------------------------------------------------------|
Gb|------------------------------------------------------------------|
Db|-----1-------0-----------6-6-5--------1-------0-----------6-6-5---|
Ab|-3-3---3-1-1---1-------6-------6--3-3---3-1-1---1-------6-------6-|
Db|-----------------6-6-6----------------------------6-6-6-----------|
                                                        
Eb|------------------------------------------------------------------|
Bb|------------------------------------------------------------------|
Gb|------------------------------------------------------------------|
Db|-----1-------0----------------------------------------------------|
Ab|-3-3---3-1-1---1-----6-------6---10-10-10-10-8-8-8-8---8-6----5-6-|
Db|-----------------5-5---5-6-6---5—10-10-10-10-8-8-8-8--5----5-6---8|
   
   *
Eb|------------------------------------------------------------------|
Bb|------------------------------------------------------------------|
Gb|------------------------------------------------------------------|
Db|-----1-------0-----------6-6-5--------1-------0-----------6-6-5---|
Ab|-3-3---3-1-1---1-------6-------6--3-3---3-1-1---1-------6-------6-|
Db|-----------------6-6-6----------------------------6-6-6-----------|

Eb|---|
Bb|---|
Gb|---|
Db|-1-|
Ab|-1-|
Db|-1-|

GUITAR 2: (BEGINS WHERE * IS ABOVE GUITAR 1 PART)
Eb|------------18-18------|
Bb|-15-15-16-16-----16-16-|
Gb|-----------------------|
Db|-----------------------|
Ab|-----------------------|
Db|-----------------------| 3x

Eb|------------18-18------------15-16-15-----15/|
Bb|-15-15-16-16-----16-16-15--------------------|
Gb|-------------------------------------13-12---|
Db|---------------------------------------------|
Ab|---------------------------------------------|
Db|---------------------------------------------| 

END WITH
GUITAR 2: (15)





            
            
Suggest correction
Creating personal tab
Creating personal tab
You can edit any tab online and save it as your Personal.

You can edit, replace or remove any tab part or add personal notes – all changes will be seen only by you.

Personal tabs can be accessed anytime from any device, even offline.
Learn more »
comments
print report bad tab
2 comments total.
+2 reply
mukecherry 43 Jul 30, 2016 04:10 PM, edited at 08:12 pm

What's the tuning for this?
UPDATE: nvm, didn't see it on the sides of the tab!

guest
You may want to rate the tab now too:
select rating
Wanna post a correction for this tab? Suggest correction