Oops, an error
Loading. Please wait.

Floral And Fading tab

version 2
version 2

Whole song

Interactive

1,933 views 18 this week
no commentswrite comment
1 2 3 4 5
x 3
add to favorites
×
Save as Personal and add changes to this tab that will be seen only by you. Learn more ›
×
You can save this tab as Personal to edit and correct it or add notes. All changes will be seen only by you. Learn more »
launch autoscroll
font size
0
reset
how to read this tab
guitar tuner
edit
Autoscroll
slow
fast
+/-
esc
set tempo
stop
Floral and Fading by Pierce the Veil on Misadventures! Please rate and comment.
The tuning is D A D G B D. Thanks and have fun! ☺ ☺ ☺ ☺ ☺ ☺ ☺ ☺ ☺ ☺ ☺ ☺ ☺ ☺ ☺ 

[Intro]

d|---------------------------------------------------------------------------------|
B|---------------------------------------------------------------------------------|
G|---------------------------------------------------------------------------------|
D|---------------------------------------------------------------------------------|
A|-------5-4---0--------------5-4---0------------4-7-4---0------------4-7-4---0----|
D|-0-4-7-----4---4------0-4-7-----4---4------4-7-------4---4------4-7-------4---4--|


[Verse] Painful lust, two aching guts...

d|---------------------------------------------------------------------------------|
B|---------------------------------------------------------------------------------|
G|---------------------------------------------------------------------------------|
D|---------------------------------------------------------------------------------|
A|-------5-4---0--------------5-4---0------------4-7-4---0------------4-7-4---0----|
D|-0-4-7-----4---4------0-4-7-----4---4------4-7-------4---4------4-7-------4---4--|


d|---------------------------------------------------------------------------------|
B|---------------------------------------------------------------------------------|
G|---------------------------------------------------------------------------------|
D|-------5--------------------5----------------------------------------------------|
A|-----5---9---5------------5---9---5-------------5-4---0-------------5-4---0------|
D|-5-9-------9---9------5-9-------9---9------0-4-7-----4---4------0-4-7-----4---4--|


[Chorus] You say you want to...

d|---------------------------------------------------------------------------------|
B|---------------------------------------------------------------------------------|
G|---------------------------------------------------------------------------------|
D|---------------------------------------------------------------------------------|
A|---------------------------10-10-9-----------------------------------10-10-9-----|
D|-9-9-12-9-7-7-11-7-5-5-5-9---------12------9-9-12-9-7-7-11-7-5-5-5-9---------12--|


d|---------------------------------------------------------------------------------|
B|---------------------------------------------------------------------------------|
G|---------------------------------------------------------------------------------|
D|-------------------10----7-------------------------------------------------------|
A|-------------------10-x8-7-x10---------------------------------------------------|
D|-9-9-12-9-7-7-11-7-10----7-------------------------------------------------------|


 [Verse] D-d-d-darker now...

d|-12---12---12---12---12---12---12---12---11---11---11---11---11---11---11---11--|
B|---10---10---10---10---10---10---10---10---10---10---10---10---10---10---10---10|
G|--------------------------------------------------------------------------------|
D|--------------------------------------------------------------------------------|
A|--------------------------------------------------------------------------------|
D|--------------------------------------------------------------------------------|


 I want devil horns...
d|--------------------------------------------------------------------------------|
B|--------------------------------------------------------------------------------|
G|---11---11---11---11---11---11-12-14-12-11---9---9---9---9---9---9--------------|
D|-12---12---12---12---12---12---------------11--11--11--11--11--11----5-5---5-5--|
A|---------------------------------------------------------------------5-5---5-5--|
D|---------------------------------------------------------------------5-5---5-5--|

 Tearing up my skin...
d|---------------------|
B|-12-10-10-8-8-7------|
G|---------------------|
D|---------------------|
A|---------------------|
D|---------------------|


[Chorus] You say you want to...

d|---------------------------------------------------------------------------------|
B|---------------------------------------------------------------------------------|
G|---------------------------------------------------------------------------------|
D|---------------------------------------------------------------------------------|
A|---------------------------10-10-9-----------------------------------10-10-9-----|
D|-9-9-12-9-7-7-11-7-5-5-5-9---------12------9-9-12-9-7-7-11-7-5-5-5-9---------12--|


d|---------------------------------------------------------------------------------|
B|---------------------------------------------------------------------------------|
G|---------------------------------------------------------------------------------|
D|-------------------10----7-------------------------------------------------------|
A|-------------------10-x8-7-x10---------------------------------------------------|
D|-9-9-12-9-7-7-11-7-10----7-------------------------------------------------------|


I couldn't figure out the solo. Sorry. 


 Selling daylight for gasoline.
d|---------------------------------------------------------------------------------|
B|---------------------------------------------------------------------------------|
G|---------------------------------------------------------------------------------|
D|-----5-------5-------5-------5-------0-------0-------0---------------------------|
A|---5---5---5---5---5---5---5---5---0---0---0---0---0---0-------------------------|
D|-5-------5-------5-------5-------0-------0-------0-------------------------------|

 
[Chorus] So now were gonna chase the moon...
d|---------------------------------------------------------------------------------|
B|---------------------------------------------------------------------------------|
G|---------------------------------------------------------------------------------|
D|---------------------------------------------------------------------------------|
A|---------------------------10-10-9-----------------------------------10-10-9-----|
D|-9-9-12-9-7-7-11-7-5-5-5-9---------12------9-9-12-9-7-7-11-7-5-5-5-9---------12--|

d|---------------------------------------------------------------------------------|
B|---------------------------------------------------------------------------------|
G|---------------------------------------------------------------------------------|
D|-----------------------------------5-7-12-14-------------------------------------|
A|-----------------------5-------7---5-7-12-14-------------------------------------|
D|-9-9-12-9-7-7-11-7-4-4---4-5-5---5-5-7-12-14-------------------------------------|


Just wanna be alone and watch Why can't we be alone and watch?

d|-11-12-19-16-11-12-19-16-11-12-19-16-11-12-19-17--15/16--------------------------|
B|---------------------------------------------------------------------------------|
G|---------------------------------------------------------------------------------|
D|---------------------------------------------------------------------------------|
A|---------------------------------------------------------------------------------|
D|---------------------------------------------------------------------------------|



************************************

| x   Dead note
| g   Grace note
| (n) Ghost note
| h   Hammer-on
| p   Pull-off
| r   Release
| >   Accented note
| t   Tapping
| b   Bend
| br  Bend release
| pb  Pre-bend
| pbr Pre-bend release
| /   Slide up
| \   Slide down
| ~   Vibrato
| s   Slap
| P   Pop
| PM  Palm mute
| TR  Trill
| N   Tremolo

************************************
Suggest correction
Creating personal tab
Creating personal tab
You can edit any tab online and save it as your Personal.

You can edit, replace or remove any tab part or add personal notes – all changes will be seen only by you.

Personal tabs can be accessed anytime from any device, even offline.
Learn more »
Give kudos to tab author, rate the tab!
1 2 3 4 5
comments
print report bad tab
guest
You may want to rate the tab now too:
select rating
Wanna post a correction for this tab? Suggest correction