Oops, an error
Loading. Please wait.

Floral And Fading Acoustic tab

version 5
version 5

Whole song

Interactive

4,357 views 87 this week
2 commentsread comments
1 2 3 4 5
x 16
add to favorites
×
Save as Personal and add changes to this tab that will be seen only by you. Learn more ›
×
You can save this tab as Personal to edit and correct it or add notes. All changes will be seen only by you. Learn more »
launch autoscroll
font size
0
reset
how to read this tab
guitar tuner
edit
Autoscroll
slow
fast
+/-
esc
set tempo
stop
"Floral & Fading" (Acoustic Version) Tabs by "Pierce The Vegan" and "Beverly Valley" (same person) on YouTube:
Pierce The Vegan - https://www.youtube.com/channel/UC3c-1ZDochB5sX-EMVW4PxQ
Beverly Valley - https://www.youtube.com/channel/UCb75kwZnHUZ9O7YzbRxzCpA
My "F&F" (Acoustic Version) acoustic cover - https://www.youtube.com/watch?v=eUmOpp3LOPo
My "F&F" (Acoustic Version) acoustic guitar cover - https://www.youtube.com/watch?v=-83xXJq2A74 

TUNING: DROP C# 

************************************

| /         Slide up
| \         Slide down
| h         Hammer-on
| p         Pull-off
| p         ("p" also means "palm mute" if it's directly under a tab chart)
| ~         Let note ring ("~" usually means "vibrato," but not for this tab)
| [ ]       Natural harmonic
| [+ ]      Pinch harmonic
| ( )       Indicates notes on the 10th fret or higher when necessary
| |L-O-O-P| Indicates when specific tab charts contain select sets of notes that essentially repeat themselves

************************************



[Intro]

   |L---O---O---P--| |--L---O---O---P--|
D#|-------------------------------------| 
A#|-------------------------------------| 
F#|--------7-6---------------7-6--------| 
C#|------4-------7---------4-------7----| 
G#|--2/5~~~~~~~5---5---2/5~~~~~~~5---5--| 
C#|0~~~~~~~~~~~~-----0~~~~~~~~~~~~------| 

   |--L---O---O---P--||--L---O---O---P--|  
D#|----------------------------------------| 
A#|----------------------------------------| 
F#|--------9------------------9------------| 
C#|------8~~~11---8~--------8~~~11---8~----| 
G#|--5/9~~~~~~~~9~~~9\--5/9~~~~~~~~9~~~9\--| 
C#|4------------------4--------------------| 

   |----L---O---O---P----||----L---O---O---P----|  
D#|------------------------------------------------| 
A#|------------------------------------------------| 
F#|---------11-9~~~~~--------------11-9~~~~~-------| 
C#|-------9~~~~~~~~~12-----------9~~~~~~~~~12------| 
G#|--6/10~~~~~~~~10~~~~10\--6/10~~~~~~~~10~~~~10\--| 
C#|5----------------------5------------------------| 

D#|-------------------------------------------| 
A#|-------------------------------------------| 
F#|--------6-4--------------------------------| 
C#|------4-------7---x-x-4~~4-4-4-4-x--4-x-0--| 
G#|--2/5~~~~~~~5---5~5-5-5~~5-5-5-5-5~~5-5-0--| 
C#|0~~~~~~~~~~~~-----0-0-0~~0-0-0-0-0~~0-0-0--| 



[Verse]

"Rage in us, your thirst I'm takin'..." 
D#|----------------------------------------------------| 
A#|----3~~3-3-3-3-3~~3~~3-3~~~~~~3~~3-3-3-3-3~~3~~3-3--| 
F#|----2~~2-2-2-2-2~~2~~2-2~~~~~~2~~2-2-2-2-2~~2~~2-2--| 
C#|0-0-0~~0-0-0-0-0~~0~~0-0~~0-0-0~~0-0-0-0-0~~0~~0-0--| 
G#|0-0-0~~0-0-0-0-0~~0~~0-0~~0-0-0~~0-0-0-0-0~~0~~0-0--| 
C#|0-0-0~~0-0-0-0-0~~0~~0-0~~0-0-0~~0-0-0-0-0~~0~~0-0--| 

"Pull the plug, I'll keep on shakin'...and..." 
D#|----------------------------------------------------| 
A#|----------------------------------------------------| 
F#|----------------------------------------------------| 
C#|----7~~7-7-7-7-7~~7~~7-7~~~~~~7~~7-7-7-7-7~~7~~7-7--| 
G#|4-4-4~~4-4-4-4-4~~4~~4-4~~4-4-4~~4-4-4-4-4~~4~~4-4--| 
C#|4-4-4~~4-4-4-4-4~~4~~4-4~~4-4-4~~4-4-4-4-4~~4~~4-4--| 

"Thrustin' about your apartment drowned on...blan-" 
D#|----------------------------------------------------| 
A#|----------------------------------------------------| 
F#|----------------------------------------------------| 
C#|----9~~9-9-9-9-9~~9~~9-9~~~~~~9~~9-9-9-9-9~~9~~9-9--| 
G#|5-5-5~~5-5-5-5-5~~5~~5-5~~5-5-5~~5-5-5-5-5~~5~~5-5--| 
C#|5-5-5~~5-5-5-5-5~~5~~5-5~~5-5-5~~5-5-5-5-5~~5~~5-5--| 

"-kets floral and fading... (Hup!)" 
D#|----0~~0-0-0-0-0~~0~~0-0~~0-0-2~~2-2-2-2-2~~2~~2-2--| 
A#|----3~~3-3-3-3-3~~3~~3-3~~3-3-3~~3-3-3-3-3~~3~~3-3--| 
F#|----2~~2-2-2-2-2~~2~~2-2~~2-2-2~~2-2-2-2-2~~2~~2-2--| 
C#|0-0-0~~0-0-0-0-0~~0~~0-0~~0-0-0~~0-0-0-0-0~~0~~0-0--|
G#|0-0-0~~0-0-0-0-0~~0~~0-0~~0-0-0~~0-0-0-0-0~~0~~0-0--| 
C#|0-0-0~~0-0-0-0-0~~0~~0-0~~0-0-0~~0-0-0-0-0~~0~~0-0--|


 
"Painful lust, two aching guts, they tear..." 
D#|----------------------------------------------------| 
A#|----------------------------------------------------| 
F#|----------------------------------------------------|
C#|----4~~4-4-4-4-4~~4~~4-4~~~~~~4~~4-4-4-4-4~~4~~4-4--|
G#|0-0-0~~0-0-0-0-0~~0~~0-0~~0-0-0~~0-0-0-0-0~~0~~0-0--| 
C#|0-0-0~~0-0-0-0-0~~0~~0-0~~0-0-0~~0-0-0-0-0~~0~~0-0--|

"Through each other in the mirror. This happy vaca-" 
D#|----------------------------------------------------| 
A#|----------------------------------------------------| 
F#|----------------------------------------------------| 
C#|----7~~7-7-7-7-7~~7~~7-7~~~~~~7~~7-7-7-7-7~~7~~7-7--| 
G#|4-4-4~~4-4-4-4-4~~4~~4-4~~4-4-4~~4-4-4-4-4~~4~~4-4--| 
C#|4-4-4~~4-4-4-4-4~~4~~4-4~~4-4-4~~4-4-4-4-4~~4~~4-4--| 

"-Tion, there's no motivation, so hold me up..." 
D#|----------------------------------------------------| 
A#|----------------------------------------------------| 
F#|----------------------------------------------------| 
C#|----9~~9-9-9-9-9~~9~~9-9~~~~~~9~~9-9-9-9-9~~9~~9-9--| 
G#|5-5-5~~5-5-5-5-5~~5~~5-5~~5-5-5~~5-5-5-5-5~~5~~5~5--| 
C#|5-5-5~~5-5-5-5-5~~5~~5-5~~5-5-5~~5-5-5-5-5~~5~~5-5--| 

                                   "You say you wanna..." 
D#|----0~~0-0-0-0-0~~0~~0-0~~0-0-2~~2-2-2-2-2~~2~~2----| 
A#|----3~~3-3-3-3-3~~3~~3-3~~3-3-3~~3-3-3-3-3~~3~~3----| 
F#|----2~~2-2-2-2-2~~2~~2-2~~2-2-2~~2-2-2-2-2~~2~~2-0--| 
C#|0-0-0~~0-0-0-0-0~~0~~0-0~~0-0-0~~0-0-0-0-0~~0~~0-0--| 
G#|0-0-0~~0-0-0-0-0~~0~~0-0~~0-0-0~~0-0-0-0-0~~0~~0-0--| 
C#|0-0-0~~0-0-0-0-0~~0~~0-0~~0-0-0~~0-0-0-0-0~~0~~0-0--| 




[Chorus]

"Chase the moon like fire - well, together we can..." 
D#|---------------------------------| 
A#|---------------------------------| 
F#|---------------------------------| 
C#|9-9-9-9-7-7-7-7-5-5-5-5-5-5-5-5--| 
G#|9-9-9-9-7-7-7-7-5-5-5-5-5-5-5-5--| 
C#|9-9-9-9-7-7-7-7-5-5-5-5-5-5-5-5--| 

"Fake our own death here. Just wanna be a-"
D#|---------------------------------| 
A#|---------------------------------| 
F#|---------------------------------| 
C#|x-x-x-x-7-7-7-7-5-5-5-5-5-5-5-5--| 
G#|5-5-5-5-7-7-7-7-5-5-5-5-5-5-5-5--| 
C#|9-9-9-9-7-7-7-7-5-5-5-5-5-5-5-5--|

"-Lone and watch as you all just disappear...Whoa-oh-ooh-uh...uh-uhh-ahh..." 
                                           |---9 strums----|
D#|-----------------------------------------------------------| 
A#|-----------------------------------------------------------| 
F#|-----------------------------------------------------------| 
C#|x-x-x-x-7-7-7-7-10-10-10-10-10-10-10-10-7-7-7-7-7-7-7-7-7--| 
G#|5-5-5-5-7-7-7-7-10-10-10-10-10-10-10-10-7-7-7-7-7-7-7-7-7--| 
C#|9-9-9-9-7-7-7-7-10-10-10-10-10-10-10-10-7-7-7-7-7-7-7-7-7--| 



[Post-Chorus]

"-Ahhhuuuuhhh..."
   |L---O---O---P--| |--L---O---O---P--|
D#|-------------------------------------| 
A#|-------------------------------------| 
F#|--------7-6---------------7-6--------| 
C#|------4-------7---------4-------7----| 
G#|--2/5~~~~~~~5---5---2/5~~~~~~~5---5--| 
C#|0~~~~~~~~~~~~-----0~~~~~~~~~~~~------| 



[Verse 2]
 
"Darker now - kicked out and sleeping in your car, you roll the window down enough to dream and 
make-believe. Our lights knocked out, turned upside down, but I'm just a..."
(Palm mute all notes.)
D#|x---x---x---x---x---x---x---x--------------------------------------------------------------------| 
A#|x---x---x---x---0---0---0---0--------------------------------------------------------------------|
F#|2---2---2---2---2---2---2---2--------------------------------------------------------------------| 
C#|4---4---4---4---4---4---4---4---7---7---7---7---7---7---7---7---9---9---9---9---9---9---9---9----| 
G#|0-0-0-0-0-0-0-0-0-0-0-0-0-0-0-0-4-4-4-4-4-4-4-4-4-4-4-4-4-4-4-4-5-5-5-5-5-5-5-5-5-5-5-5-5-5-5-5--| 
C#|0-0-0-0-0-0-0-0-0-0-0-0-0-0-0-0-4-4-4-4-4-4-4-4-4-4-4-4-4-4-4-4-5-5-5-5-5-5-5-5-5-5-5-5-5-5-5-5--| 
   p p p p p p p p p p p p p p p p p p p p p p p p p p p p p p p p p p p p p p p p p p p p p p p p
                                  
"Stupid mother f(bleep)cker - can't figure it out. I want..."
(Palm mute every chord except for the 9th one.)
D#|-----------------------------------| 
A#|x---3---3---3----------------------| 
F#|2---2---2---2---x------------------| 
C#|0---0---0---0---7-----------0-13\--|
G#|0-0-0-0-0-0-0-0-0-----------0-13\--| 
C#|0-0-0-0-0-0-0-0-0-----------0-13\--| 
   p p p p p p p p             p


 
"Devil horns, I wanna breathe in your rush, I wanna..."
D#|----x-x-----x-------2-2-----2-xx--|   
A#|----3-3-----3-------3-3-----3-xx--|
F#|----2-2-----2-------2-2-----2-xx--| 
C#|0-0-0-0-0-0-0-0-0-0-0-0-0-0-0-xx--| 
G#|0-0-0-0-0-0-0-0-0-0-0-0-0-0-0-xx--| 
C#|0-0-0-0-0-0-0-0-0-0-0-0-0-0-0-xx--| 

"Leap when you want me to fly. But darlin' I..." 
D#|------------------------------x---| 
A#|------------------------------x---| 
F#|------------------------------x---| 
C#|----7-7-----7-------7-7-----7-x5--|
G#|4-4-4-4-4-4-4-4-4-4-4-4-4-4-4-x5--|
C#|4-4-4-4-4-4-4-4-4-4-4-4-4-4-4-x5--| 

"Don't mean to beg, but these thorns on the stem are nearly tearing up my skin! So now you wanna..." 
                                       (Start these chords with a palm-mute and begin to come 
                                       off of the palm-mute and strum a bit harder with every strum.)
D#|------------------------------------x-x-x-x-x-x-x-x-x-x-x-x-x-x-x----|
A#|------------------------------------3-3-3-3-3-3-3-3-3-3-3-3-3-3-3----| 
F#|------------------------------------2-2-2-2-2-2-2-2-2-2-2-2-2-2-2----|
C#|5-5-----------4/5-5-5---------------0-0-0-0-0-0-0-0-0-0-0-0-0-0-0-0--|
G#|5-5---------------5-5---------------0-0-0-0-0-0-0-0-0-0-0-0-0-0-0-0--| 
C#|5-5---------------5-5---------------0-0-0-0-0-0-0-0-0-0-0-0-0-0-0-0--| 
                                       p p p p p p p p p p p p p p   



[Chorus 2]

"Chase the moon like fire - well, together we can..." 
D#|---------------------------------| 
A#|---------------------------------| 
F#|---------------------------------| 
C#|9~~~~~~~7~~~~~~~5~~~~~~~5-5-4----| 
G#|9~~~~~~~7~~~~~~~5~~~~~~~------5--| 
C#|9~~~~~~~7~~~~~~~5~~~~~~~---------| 

"Fake our own death here. Just wanna be a-"
D#|---------------------------------| 
A#|---------------------------------| 
F#|---------------------------------| 
C#|x-x-x-x-7-7-7-7-5-5-5-5-5-5-5-5--| 
G#|5-5-5-5-7-7-7-7-5-5-5-5-5-5-5-5--| 
C#|9-9-9-9-7-7-7-7-5-5-5-5-5-5-5-5--|

"-Loah and watch as you all just disappear...unh..." 
                                           |--8 strums---|
D#|----------------------------------------------------------| 
A#|----------------------------------------------------------| 
F#|----------------------------------------------------------| 
C#|x-x-x-x-7-7-7-7-10-10-10-10-10-10-10-10-7-7-7-7-7-7-7-7\--| 
G#|5-5-5-5-7-7-7-7-10-10-10-10-10-10-10-10-7-7-7-7-7-7-7-7\--| 
C#|9-9-9-9-7-7-7-7-10-10-10-10-10-10-10-10-7-7-7-7-7-7-7-7\--| 



[Bridge]

(Tabs to the guitar solo will be included in this "Bridge" section.)
(Palm-mute all of these suckers.)
D#|-----------------------------------------------------------------| 
A#|-----------------------------------------------------------------| 
F#|-----------------------------------------------------------------| 
C#|5-5-5-5-5-5-5-5-7-7-7-7-7-7-7-7-4-4-4-4-4-4-4-4-9-9-9-9-7-7-7-7--| 
G#|5-5-5-5-5-5-5-5-7-7-7-7-7-7-7-7-4-4-4-4-4-4-4-4-9-9-9-9-7-7-7-7--| 
C#|5-5-5-5-5-5-5-5-7-7-7-7-7-7-7-7-4-4-4-4-4-4-4-4-9-9-9-9-7-7-7-7--| 
   p p p p p p p p p p p p p p p p p p p p p p p p p p p p p p p p 
                                                         
                                                           If you want, you could very easily incorporate the 
                                                       lead guitar's chord notes into your rhythm playing for 
                                                       the last eight strums with this chord. I do this live.)
                                                      "Mmmmmmmhhhhhmmmmmm..."          
(The whole lot of these suckers are palm-muted, too.)
D#|-----------------------------------------------------------------|                   D#|x--|
A#|-----------------------------------------------------------------|                   A#|10-|
F#|------------------------7-7-7-7----------------------------------|                   F#|9--|
C#|5-5-5-5-5-5-5-5-7-7-7-7-7-7-7-7-7-7-7-7-7-7-7-7-7-7-7-7-7-7-7-7--|                   C#|7--|
G#|5-5-5-5-5-5-5-5-7-7-7-7-7-7-7-7-7-7-7-7-7-7-7-7-7-7-7-7-7-7-7-7--|                   G#|7--|
C#|5-5-5-5-5-5-5-5-7-7-7-7-7-7-7-7-7-7-7-7-7-7-7-7-7-7-7-7-7-7-7-7--|                   C#|7--|
   p p p p p p p p p p p p p p p p p p p p p p p p p p p p p p p p 


************************************
        *[Solo]*

D#|---------------------------------------------------------------------|
A#|---------------------------------------------------------------------|
F#|---------------------------------------------------------------------|
C#|----5\7-5-5-4-4------------------------------------------------------|
G#|--5-------------5/7-7-7-7-4-4-4-4-0-0-0-0-0/4-4-4-4\2-2-2-2-0-0-0-0--|
C#|9--------------------------------------------------------------------|

                                                              "Mmmmmmmhhhhhmmmmmm..." 
D#|------------------------------------------------------------------------------|
A#|------------------------------------------------------10~10~10~10~10~10~10~10-|
F#|------------------------------------------------------9~~9~~9~~9~~9~~9~~9~~9--|
C#|------5\7-5-5-4-4-----------------------------------7~7~~7~~7~~7~~7~~7~~7~~7--|
G#|----5-------------5/7-7-7-7-7/9-9-9-9-7-7-7-7-7-7-7-7~7~~7~~7~~7~~7~~7~~7~~7--|
C#|5-9---------------------------------------------------------------------------|

************************************


"Close your eyes - picture you and I selling daylight for gasoline... So now we're gonna..."
                                             (The last chords starts very faintly, and increase in intensity.)
D#|-------------------------------------------------------------|
A#|---------------------------------------3~~~~3~3~3~3~3~3~3~3--|
F#|7~~~~~~~~~~~~--------------------------2~~~~2~2~2~2~2~2~2~2--|
C#|4~~~~~~~~~~~~7~~~~~~~~~~~~9~~~~~~~~~~~~0~~~~0~0~0~0~0~0~0~0--|
G#|0~~~~~~~~~~~~4~~~~~~~~~~~~5~~~~~~~~~~~~0~~~~0~0~0~0~0~0~0~0--|
C#|0~~~~~~~~~~~~4~~~~~~~~~~~~5~~~~~~~~~~~~0~~~~0~0~0~0~0~0~0~0--|




[Chorus 3]

"Chase the moon like fire - yeah, together we can..."
D#|---------------------------------| 
A#|---------------------------------| 
F#|---------------------------------| 
C#|x-x-x-x-7-7-7-7-5-5-5-5-5-5-4----| 
G#|9-9-9-9-7-7-7-7-5-5-5-5-------5--| 
C#|9-9-9-9-7-7-7-7-5-5-5-5----------| 

"Fake our own deaths here. Just wanna be a-"
D#|---------------------------------| 
A#|---------------------------------| 
F#|---------------------------------| 
C#|x-x-x-x-7-7-7-7-5-5-5-5-5-5-5-5--| 
G#|5-5-5-5-7-7-7-7-5-5-5-5-5-5-5-5--| 
C#|9-9-9-9-7-7-7-7-5-5-5-5-5-5-5-5--|

"-Lone and watch as you all just disappear... Whoa-ooh-noo-ohh. Just wanna be a-"  
D#|-----------------------------------------------------------------| 
A#|-----------------------------------------------------------------| 
F#|-----------------------------------------------------------------| 
C#|x-x-x-x-7-7-7-7-4-4-4-4-5-5-5-5-9-9-9-9-7-7-7-7-4-4-4-4-5-5-5-5--| 
G#|5-5-5-5-7-7-7-7-4-4-4-4-5-5-5-5-9-9-9-9-7-7-7-7-4-4-4-4-5-5-5-5--| 
C#|9-9-9-9-7-7-7-7-4-4-4-4-5-5-5-5-9-9-9-9-7-7-7-7-4-4-4-4-5-5-5-5--| 


[Outro]

"-Lone and watch... Why can't we be alone and watch?"
D#|-----------------------------------------------------------------| 
A#|-----------------------------------------------------------------| 
F#|-----------------------------------------------------------------| 
C#|9-9-9-9-7-7-7-7-5-5-5-5-9-9-9-9-7-7-7-7-5-5-5-5-5-5-4---0~~~~~~~~| 
G#|9-9-9-9-7-7-7-7-5-5-5-5-9-9-9-9-7-7-7-7-5-5-5-5-------5-0~~~~~~~~| 
C#|9-9-9-9-7-7-7-7-5-5-5-5-9-9-9-9-7-7-7-7-5-5-5-5---------0~~~~~~~~|




I super, mega hope this helps you out and you like it. If you're a UG author, you enjoy my tabs and you up 
vote them, you'll make it so much easier for me to publicize future stellar tablature like this. 
Myself and many others will be very grateful for your support. :)

My name's Demetrius - again, my YouTube channels: 
Pierce The Vegan - https://www.youtube.com/channel/UC3c-1ZDochB5sX-EMVW4PxQ
Beverly Valley - https://www.youtube.com/channel/UCb75kwZnHUZ9O7YzbRxzCpA
My "F&F" (Acoustic Version) acoustic cover - https://www.youtube.com/watch?v=eUmOpp3LOPo
My "F&F" (Acoustic Version) acoustic guitar cover - https://www.youtube.com/watch?v=-83xXJq2A74 



STRAIGHT LYRICS UP IN HERE:

"Floral & Fading"


[Verse 1]

Rage in us, your thirst I'm taking,
Pull the plug, I'll keep on shaking.
And thrustin' about your apartment,
Drowned on the blankets floral and fading.
Painful lust, two aching guts,
They tear through each other in the mirror.
This happy vacation, there's no motivation,
So hold me up.


[Chorus]

You say you want to chase the moon like fire,
Well, together we can fake our own deaths here,
Just wanna be alone and watch as you all just disappear.


[Verse 2]

D-d-d-darker now, kicked out and sleeping in your car,
You roll the window down, enough to dream and make-believe.
Our lights knocked out, turned upside down,
And I'm just a stupid motherfucker, can't figure it out.
I want devil horns, I wanna breathe in your rush,
I wanna leap when you want me to fly.
But darlin', I don't mean to beg,
But these thorns on the stem are nearly tearing up my skin.


[Chorus]

And now you wanna chase the moon like fire,
Well, together we can fake our own deaths here,
Just wanna be alone and watch as you all just disappear.
TONY!


[Hook]

Close your eyes,
Picture you and I,
Selling daylight for gasoline.


[Bridge]

So now we're gonna chase the moon like fire,
Yeah, together we can fake our own deaths here,
Just wanna be alone and watch as you all just disappear.


[Outro]

Whoa-oh-oh,
Just wanna be alone and watch...
Why can't we be alone and watch?
Suggest correction
Creating personal tab
Creating personal tab
You can edit any tab online and save it as your Personal.

You can edit, replace or remove any tab part or add personal notes – all changes will be seen only by you.

Personal tabs can be accessed anytime from any device, even offline.
Learn more »
comments
print report bad tab
2 comments total.
0 reply
ameliaxblackw1 141 Dec 08, 2016 02:25 PM

amazing tab!

0 reply
arcade999 20 Mar 09, 2017 09:41 AM

Amazing tab! I play The intro slightly different though. Instead of:
D#|-------------------------------------|
A#|-------------------------------------|
F#|--------7-6---------------7-6--------|
C#|------4-------7---------4-------7----|
G#|--2/5-------5---5---2/5-------5---5--|
C#|0-----------------0------------------|

I just play
D#|-------------------------------------|
A#|-------------------------------------|
F#|--------7-6---------------7-6--------|
C#|------4-----0-7-0-------4-----0-7-0--|
G#|--2/5---------------2/5--------------|
C#|0-----------------0------------------|

It's just slightly easier. Same either way. Great job!

guest
You may want to rate the tab now too:
select rating
Wanna post a correction for this tab? Suggest correction